Log in

One click and you are in

Login with Facebook Login with Google

Why sign up and log in

Guitar Tabs Explorer
Pretty Vicious bass tabs for These four walls

Bass tabs

Tuning: Standard (E A D G)


Pickstyle
Intro:
 (0:06)
G|------------|------------|------------|--------------|------------|------------|------------|------------|
D|4-4-4-4-4-4-|4-4-4-4-4-4-|2-2-2-2-2-2/|12-12-12-12-12|9-9-9-9-9-9-|9-9-9-9-9-9-|9-9-9-9-9-9-|9-9-9-9-9-9-|
A|------------|------------|------------|--------------|------------|------------|------------|------------|
E|------------|------------|------------|--------------|------------|------------|------------|------------|

 (0:13)
G|------------|------------|------------|--------------|------------|------------|------------------|
D|4-4-4-4-4-4-|4-4-4-4-4-4-|2-2-2-2-2-2/|12-12-12-12-12|9-9-9-9-9-9-|9-9-9-9-9-9/|16-16-16-16-16-16-|
A|------------|------------|------------|--------------|------------|------------|------------------|
E|------------|------------|------------|--------------|------------|------------|------------------|
                                         play for 2 bars


Verse 1:
 (0:19)
G|------------|------------|------------|------------|------------|------------|------------|------------|
D|------------|------------|------------|------------|------------|------------|------------|------------|
A|------------|------------|----------5-|5-----5---2-|2-----2-----|2-----2-----|2-----2-----|2-2-2-2-2-2-|
E|2-----2-----|2-----2---0-|0-----0-----|------------|------------|------------|------------|------------| x3

(0:38)                                     (0:43)
G|------------|------------|------------|------------|------------|------------|------------------|
D|------------|------------|------------|------------|------------|------------|------------------|
A|------------|------------|----------5-|5-----5---2-|2-----2-----|2-----2/----|14-14-14-14-14-14\|
E|2-----2-----|2-----2---0-|0-----0-----|------------|------------|------------|------------------|
                                        play for 2 bars


Chorus:
 (0:44)
G|------------|------------|------------|------------|------------|------------|------------|------------|
D|------------|------------|------------|------------|------------|------------|------------|------------|
A|------------|------------|----------5-|5-----5---2-|2-----2-----|2-----2-----|2-----2-----|2-2-2-2-2-2-|
E|2-----2-----|2-----2---0-|0-----0-----|------------|------------|------------|------------|------------| x3

 (1:04)                                     (1:08)
G|------------|------------|------------|------------|------------|------------|------------------|
D|------------|------------|------------|------------|------------|------------|------------------|
A|------------|------------|----------5-|5-----5---2-|2-----2-----|2-----2/----|14-14-14-14-14-14\|
E|2-----2-----|2-----2---0-|0-----0-----|------------|------------|------------|------------------|
                                        play for 2 bars

 (1:09)
G|------------|------------|------------|------------|------------|------------|------------|------------|
D|------------|------------|------------|------------|------------|------------|------------|------------|
A|9---9p7--9--|---------7--|9---9p7--9--|---------7--|9---9-9----9|9---9-9----9|9-9-9-9-9-9-|9-9-9-9-9-9-|
E|------------|------------|------------|------------|------------|------------|------------|------------|


Verse 2:
 (1:16)
G|------------|------------|------------|------------|------------|------------|------------|------------|
D|------------|------------|------------|------------|------------|------------|------------|------------|
A|------------|------------|----------5-|5-----5---2-|2-----2-----|2-----2-----|2-----2-----|2-2-2-2-2-2-|
E|2-----2-----|2-----2---0-|0-----0-----|------------|------------|------------|------------|------------| x3

(1:35)                                     (1:40)
G|------------|------------|------------|------------|------------|------------|------------------|
D|------------|------------|------------|------------|------------|------------|------------------|
A|------------|------------|----------5-|5-----5---2-|2-----2-----|2-----2/----|14-14-14-14-14-14\|
E|2-----2-----|2-----2---0-|0-----0-----|------------|------------|------------|------------------|
                                        play for 2 bars


Chorus:
 (1:41)
G|------------|------------|------------|------------|------------|------------|------------|------------|
D|------------|------------|------------|------------|------------|------------|------------|------------|
A|------------|------------|----------5-|5-----5---2-|2-----2-----|2-----2-----|2-----2-----|2-2-2-2-2-2-|
E|2-----2-----|2-----2---0-|0-----0-----|------------|------------|------------|------------|------------| x3

 (2:00)                                     (2:05)
G|------------|------------|------------|------------|------------|------------|------------------|
D|------------|------------|------------|------------|------------|------------|------------------|
A|------------|------------|----------5-|5-----5---2-|2-----2-----|2-----2/----|14-14-14-14-14-14\|
E|2-----2-----|2-----2---0-|0-----0-----|------------|------------|------------|------------------|
                                        play for 2 bars

 (2:06)
G|------------|------------|------------|------------|------------|------------|------------|------------|
D|------------|------------|------------|------------|------------|------------|------------|------------|
A|9---9p7--9--|---------7--|9---9p7--9--|---------7--|9---9-9----9|9---9-9----9|9-9-9-9-9-9-|9-9-9-9-9-9-|
E|------------|------------|------------|------------|------------|------------|------------|------------|


//Bridge part has this "gallop" thing. Listen to the drums and you'll figure it out.


Bridge:
 (2:13)
G|------------|------------|------------|------------|------------|------------|------------|------------|
D|------------|------------|------------|------------|------------|------------|------------|------------|
A|------------|------------|----------5-|5---5-5---2-|2---2-2---2-|2---2-2---2-|2---2-2---2-|2---2-2---2-|
E|2---2-2---2-|2---2-2---0-|0---0-0-----|------------|------------|------------|------------|------------| x5

(2:45)                                     (2:50)
G|------------|------------|------------|------------|------------|------------|------------------|
D|------------|------------|------------|------------|------------|------------|------------------|
A|------------|------------|----------5-|5---5-5---2-|2---2-2---2-|2---2-2---2/|14-14-14-14-14-14\|
E|2---2-2---2-|2---2-2---0-|0---0-0-----|------------|------------|------------|------------------|
                                        play for 2 bars


//First three Interlude parts just differ sligthly

Interlude:
 (2:51)
G|------------|------------|------------|------------|------------|------------|------------|------------|
D|------------|------------|------------|------------|------------|------------|------------|------------|
A|------------|------------|----------5-|5---5-5---2-|2-----2-----|2-----2-----|2-----2-----|2-2-2-2-2-2-|
E|2-----2-----|2---2-2---0-|0---0-0-----|------------|------------|------------|------------|------------|

 (2:58)
G|------------|------------|------------|------------|------------|------------|------------|------------|
D|------------|------------|------------|------------|------------|------------|------------|------------|
A|------------|------------|----------5-|5---5-5---2-|2-----2-----|2-----2-----|2-----2-----|2-2-2-2-2---|
E|2---2-2---2-|2---2-2---0-|0---0-0-----|------------|------------|------------|------------|----------2-|

 (3:04)
G|------------|------------|------------|------------|------------|------------|------------|------------|
D|------------|------------|------------|------------|------------|------------|------------|------------|
A|------------|------------|----------5-|5---5-5---2-|2-----2-----|2-----2-----|2-----2-----|2-2-2-2-2-2-|
E|2---2-2---2-|2---2-2---0-|0---0-0-----|------------|------------|------------|------------|------------|

 (3:10)                                     (3:15)
G|------------|------------|------------|------------|------------|------------|------------------|
D|------------|------------|------------|------------|------------|------------|------------------|
A|------------|------------|----------5-|5---5-5---2-|2-----2-----|2-----2/----|14-14-14-14-14-14\|
E|2-----2-----|2---2-2---0-|0---0-0-----|------------|------------|------------|------------------|
                                        play for 2 bars


CHORUS:
 (3:17)
G|------------|------------|------------|------------|------------|------------|------------|------------|
D|------------|------------|------------|------------|------------|------------|------------|------------|
A|------------|------------|----------5-|5-----5---2-|2-----2-----|2-----2-----|2-----2-----|2-2-2-2-2-2-|
E|2-----2-----|2-----2---0-|0-----0-----|------------|------------|------------|------------|------------| x3

 (3:36)                                     (3:41)
G|------------|------------|------------|------------|------------|------------|------------------|
D|------------|------------|------------|------------|------------|------------|------------------|
A|------------|------------|----------5-|5-----5---2-|2-----2-----|2-----2/----|14-14-14-14-14-14\|
E|2-----2-----|2-----2---0-|0-----0-----|------------|------------|------------|------------------|
                                        play for 2 bars

 (3:42)
G|------------|
D|------------|
A|------------|
E|2/---(0)----|
 Mute open E-string as slide gets there


***********************************
|
| /  Slide up
| \  Slide down
| p  Pull-off
|
***********************************

Almost there ...

Sign in to get your own page with links to favourite songs and more. You are just one click away...

Login with Facebook Login with Google