Log in

One click and you are in

Login with Facebook Login with Google

Why sign up and log in

Guitar Tabs Explorer
Pretty Vicious bass tabs for Something worthwhile

Something Worthwhile bass tab - Pretty Vicious

Pretty Vicious bass tabs for Something worthwhile

Bass tabs

Tuning: Standard (E A D G)

"Something Worthwhile"
by Pretty Vicious
from Album "Beauty Of Youth" (2019)

Pickstyle
Intro:
 (0:09)
G|------------|
D|------------|
A|---0--2--3--|
E|------------|

G|------------|------------|------------|------------|
D|------------|------------|------------|------------|
A|5--5--5--5--|5--5--5--5--|5--5--5--5--|5--0--2--3--|
E|------------|------------|------------|------------| x2

G|------------|------------|------------|------------|
D|------------|------------|------------|------------|
A|5--5--5--5--|5--5--5--5--|5--5--5--5--|5--5--5--5--|
E|------------|------------|------------|------------|

G|------------|------------|------------|------------|
D|------------|------------|------------|------------|
A|3--3--3--3--|3--3--3--3--|------------|------------|
E|------------|------------|3--3--3--3--|3--3--3--3--| x2

 (0:25)
G|------------|------------|------------|------------|------------|------------|------------|------------|
D|------------|------------|------------|------------|------------|------------|------------|------------|
A|3--3--3--3--|3--3--3--3--|------------|3-----------|5--5--5--5--|5--5--5--5--|5--5--5--5--|5--5--5--5--|
E|------------|------------|3--3--3--3--|---3--5--3--|------------|------------|------------|------------|

G|------------|------------|------------|------------|
D|------------|------------|------------|------------|
A|5--5--5--5--|5--5--5--5--|5--5--5--5--|5--0--2--3--|
E|------------|------------|------------|------------| x4


Verse 1:
 (0:44)
G|------------|------------|------------|------------|------------|------------|------------|------------|
D|------------|------------|------------|------------|------------|------------|------------|------------|
A|5-----5-----|5--5--5--5--|---5--5-----|5--0--2--3--|5-----5-----|5--5--5--5--|---5--5-----|5--5--5--5--|
E|------------|------------|------------|------------|------------|------------|------------|------------|
 d   d   d u d u   d d   d u d u  d   d   d u d u   d d   d u d u

G|------------|------------|------------|------------|------------|------------|------------|------------|
D|------------|------------|------------|------------|------------|------------|------------|------------|
A|3-----3-----|3--3--3-----|------------|---0--2--3--|5-----5-----|5--5--5--5--|---5--5-----|5--0--2--3--|
E|------------|---------3--|---3--3-----|3-----------|------------|------------|------------|------------|

 (0:57)
G|------------|------------|------------|------------|------------|------------|------------|------------|
D|------------|------------|------------|------------|------------|------------|------------|------------|
A|5-----5-----|5--5--5--5--|---5--5-----|5--0--2--3--|5-----5-----|5--5--5--5--|---5--5-----|5--5--5--5--|
E|------------|------------|------------|------------|------------|------------|------------|------------|

G|------------|------------|------------|------------|
D|------------|------------|------------|------------|
A|3-----3-----|3--3--3-----|------------|------------|
E|------------|---------3--|---3--3-----|3--3--3--3--| x2

 (1:09)
G|------------|------------|------------|------------|------------|------------|------------|------------|
D|------------|------------|------------|------------|------------|------------|------------|------------|
A|3-----3-----|3--3--3-----|------------|---0--2--3--|5-----5-----|5--5--5--5/-|17-17-17-17-|17-17-17-17-|
E|------------|---------3--|---3--3-----|3-----------|------------|------------|------------|------------|


Chorus:
 (1:17)
G|------------|------------|------------|------------|------------|------------|------------|------------|
D|------------|------------|------------|------------|------------|------------|------------|------------|
A|------------|------------|------------|------------|5-----5-----|5--5--5-----|------------|------------|
E|0-----0-----|0--2-----3--|---3--3-----|3--3--3--3--|------------|---------5--|---5--5-----|5--3--2-----| x3

G|------------|------------|------------|------------|------------|------------|------------|------------|
D|------------|------------|------------|------------|5--5--5--5--|5--5--5--5--|5--5--5--5--|5--5--5--5--|
A|------------|------------|------------|------------|------------|------------|------------|------------|
E|3--3--3--3--|3--3--3--3--|3--3--3--3--|3--3--3--3--|------------|------------|------------|------------|


Verse 2:
 (1:40)
G|------------|------------|------------|------------|------------|------------|------------|------------|
D|------------|------------|------------|------------|------------|------------|------------|------------|
A|5-----5-----|5--5--5--5--|---5--5-----|5--0--2--3--|5-----5-----|5--5--5--5--|---5--5-----|5--5--5--5--|
E|------------|------------|------------|------------|------------|------------|------------|------------|


G|------------|------------|------------|------------|------------|------------|------------|------------|
D|------------|------------|------------|------------|------------|------------|------------|------------|
A|3-----3-----|3--3--3-----|------------|---0--2--3--|5-----5-----|5--5--5--5--|---5--5-----|5--0--2--3--|
E|------------|---------3--|---3--3-----|3-----------|------------|------------|------------|------------|

 (1:53)
G|------------|------------|------------|------------|------------|------------|------------|------------|
D|------------|------------|------------|------------|------------|------------|------------|------------|
A|5-----5-----|5--5--5--5--|---5--5-----|5--0--2--3--|5-----5-----|5--5--5--5--|---5--5-----|5--5--5--5--|
E|------------|------------|------------|------------|------------|------------|------------|------------|

G|------------|------------|------------|------------|
D|------------|------------|------------|------------|
A|3-----3-----|3--3--3-----|------------|------------|
E|------------|---------3--|---3--3-----|3--3--3--3--| x2

 (2:06)
G|------------|------------|------------|------------|------------|------------|------------|------------|
D|------------|------------|------------|------------|------------|------------|------------|------------|
A|3-----3-----|3--3--3-----|------------|---0--2--3--|5-----5-----|5--5--5--5/-|17-17-17-17-|17-17-17-17-|
E|------------|---------3--|---3--3-----|3-----------|------------|------------|------------|------------|


Chorus:
 (2:12)
G|------------|------------|------------|------------|------------|------------|------------|------------|
D|------------|------------|------------|------------|------------|------------|------------|------------|
A|------------|------------|------------|------------|5-----5-----|5--5--5-----|------------|------------|
E|0-----0-----|0--2-----3--|---3--3-----|3--3--3--3--|------------|---------5--|---5--5-----|5--3--2-----| x3

G|------------|------------|------------|------------|------------|------------|------------|------------|
D|------------|------------|------------|------------|------------|------------|------------|------------|
A|------------|------------|------------|------------|------------|------------|------------|------------|
E|3--3--3--3--|3--3--3--3--|3--3--3--3--|3--3--3--3/-|15-15-15-15-|15-15-15-15-|15-15-15-15-|15-15-15-15-|


Bridge:
 (2:37)
G|------------|------------|------------|------------|
D|------------|------------|------------|------------|
A|5-----5-----|5--5-----5--|---5--5-----|5--0--2--3--|
E|------------|------------|------------|------------| x11

G|------------|------------|------------|------------|
D|------------|------------|------------|------------|
A|5-----5-----|5--5-----5/-|17-17-17-17-|17-17-17-17\|
E|------------|------------|------------|------------|


Chorus:
 (3:14)
G|------------|------------|------------|------------|------------|------------|------------|------------|
D|------------|------------|------------|------------|------------|------------|------------|------------|
A|------------|------------|------------|------------|5-----5-----|5--5--5-----|------------|------------|
E|0-----0-----|0--2-----3--|---3--3-----|3--3--3--3--|------------|---------5--|---5--5-----|5--3--2-----| x3

G|------------|------------|------------|------------|------------|------------|------------|------------|
D|------------|------------|------------|------------|------------|------------|------------|------------|
A|------------|------------|------------|------------|------------|------------|------------|------------|
E|3--3--3--3--|3--3--3--3--|3--3--3--3--|3--3--3--3/-|15-15-15-15-|15-15-15-15-|15-15-15-15-|15-15-15-15-|


Outro:
 (3:40)
G|------------|------------|------------|------------|
D|------------|------------|------------|------------|
A|5--5--5--5--|5--5--5--5--|5--5--5--5--|5--0--2--3--|
E|------------|------------|------------|------------| x4

 (3:42)
G|------------|
D|------------|
A|5-----------|
E|------------|
 let ring


************************************
|
| / Slide up
| \ Slide down
|
************************************

Almost there ...

Sign in to get your own page with links to favourite songs and more. You are just one click away...

Login with Facebook Login with Google