Log in

One click and you are in

Login with Facebook Login with Google

Why sign up and log in

Guitar Tabs Explorer
Pretty Vicious bass tabs for No one understands

No One Understands bass tab - Pretty Vicious

Pretty Vicious bass tabs for No one understands

Bass tabs

Tuning: Standard (E A D G)


E-Standard tuning (EADG)
Pickstyle
Intro:
 (0:07)
G|------------|
D|------------|
A|------------|
E|0--2--5--2--|


Verse 1:
 (0:08)
G|------------|------------|------------|------------|------------|------------|------------|------------|
D|------------|------------|------------|------------|------------|------------|------------|------------|
A|------------|------------|------------|------------|------------|------------|------------|------------|
E|2--2--2--2--|2--2--2--2/-|7--7--7--7--|7--7--7--7/-|10-10-10-10-|10-10-10-10-|10-10-10-10-|12-12-10-7\-| x4


Chorus:
 (0:41)
G|------------|------------|------------|------------|------------|------------|------------|------------|
D|------------|------------|------------|------------|------------|------------|------------|------------|
A|------------|------------|------------|------------|------------|------------|------------|------------|
E|2-----2-----|2--2--2--2/-|7-----7-----|7--7--7--7/-|10----10----|10-5--2--2--|0-----0--0/-|12-12-12-12\| x2

 (0:58)
G|------------|------------|------------|------------|
D|------------|------------|------------|------------|
A|------------|------------|------------|------------|
E|2-----2--/--|12-12-12-\--|7-----7--\--|5--5--5--\--| x2
 let notes ring before slide


Verse 2:
 (1:07)
G|------------|------------|------------|------------|------------|------------|------------|------------|
D|------------|------------|------------|------------|------------|------------|------------|------------|
A|------------|------------|------------|------------|------------|------------|------------|------------|
E|2--2--2--2--|2--2--2--2/-|7--7--7--7--|7--7--7--7/-|10-10-10-10-|10-10-10-10-|10-10-10-10-|12-12-10-7\-| x3

 (1:32)
G|------------|------------|------------|------------|------------|------------|------------|------------|
D|------------|------------|------------|------------|------------|------------|------------|------------|
A|------------|------------|------------|------------|------------|------------|------------|------------|
E|2--2--2--2--|2--2--2--2/-|7--7--7--7--|7--7--7--7/-|10-10-10-10-|10-10-10-10-|10-10-10-10-|10----------|
                                               mute after pluck


Chorus:
 (1:40)
G|------------|------------|------------|------------|------------|------------|------------|------------|
D|------------|------------|------------|------------|------------|------------|------------|------------|
A|------------|------------|------------|------------|------------|------------|------------|------------|
E|2-----2-----|2--2--2--2/-|7-----7-----|7--7--7--7/-|10----10----|10-5--2--2--|0-----0--0/-|12-12-12-12\| x4

 (2:14)
G|------------|------------|------------|------------|
D|------------|------------|------------|------------|
A|------------|------------|------------|------------|
E|2-----2--/--|12-12-12-\--|7-----7--\--|5--5--5-(5)-| x4


Interlude:
 (2:30)
G|------------|------------|------------|------------|------------|------------|------------|------------|
D|------------|------------|------------|------------|------------|------------|------------|------------|
A|5--5--5--5--|5--5--5--5--|5--5--5--5--|5--5--5--7--|7--7--7--7--|7--7--7--7--|7--7--7--7--|9--7--9--7--|
E|------------|------------|------------|------------|------------|------------|------------|------------|

 (2:39)
G|------------|------------|------------|------------|------------|------------|------------|------------|
D|------------|------------|------------|------------|------------|------------|------------|------------|
A|5--5--5--5--|5--5--5--5--|5--5--5--5--|5--5--5--7--|7--7--7--7--|7--7--7--7--|7--7--7--7--|7-----------|
E|------------|------------|------------|------------|------------|------------|------------|------------|
                                               mute after pluck


Chorus:
 (2:47)
G|------------|------------|------------|------------|------------|------------|------------|------------|
D|------------|------------|------------|------------|------------|------------|------------|------------|
A|------------|------------|------------|------------|------------|------------|------------|------------|
E|2-----2-----|2--2--2--2/-|7-----7-----|7--7--7--7/-|10----10----|10-5--2--2--|0-----0--0/-|12-12-12-12\| x3


 (3:12)
G|------------|------------|------------|------------|------------|------------|------------|------------|
D|------------|------------|------------|------------|------------|------------|------------|------------|
A|------------|------------|------------|------------|5--5--5--5--|5--5--5--5--|5--5--5--5--|5--5--5--5--|
E|2-----2-----|2--2--2--2/-|7-----7-----|7--7--7--7--|------------|------------|------------|------------|

 (3:21)
G|------------|------------|------------|------------|------------|------------|------------|------------|
D|------------|------------|------------|------------|------------|------------|------------|------------|
A|7--7--7--7--|7--7--7--7--|7--7--7--7--|7--7--7--7--|5--5--5--5--|5--5--5--5--|5--5--5--5--|5--5--5--5--|
E|------------|------------|------------|------------|------------|------------|------------|------------|

 (3:29)
G|------------|------------|------------|------------|------------|
D|------------|------------|------------|------------|------------|
A|7--7--7--7--|7--7--7--7--|9--7--4--2--|0--2--0-----|------------|
E|------------|------------|------------|---------4--|2-----------|
                           let ring


************************************
|
| / Slide up
| \ Slide down
|(n) Ghost note
|
************************************

Almost there ...

Sign in to get your own page with links to favourite songs and more. You are just one click away...

Login with Facebook Login with Google