Log in

One click and you are in

Login with Facebook Login with Google

Why sign up and log in

Guitar Tabs Explorer
Pretty Vicious bass tabs for Move

Bass tabs

Tuning: Standard (E A D G)

Difficulty: Novice


Intro: x2 (Bass starts at 0:06)

G|-----------------------------------|
D|-----------------------------------|
A|-----------------------------------|
E|--2-2-2-2-2-2-2-2-2-2-2-2-2-2-2-2--|
Riff: x4

G|-----------------------------------|
D|-----------------------------------|
A|------------------5-5-5-4-2-2-2-2--|
E|--2-2-5-2-5-5-5-2------------------|


Verse: x4

G|-----------------------------------|
D|-----------------------------------|
A|--------------------5-5-4-2-2-2-2--|
E|--2-2-2-2-2-2-2-2-2----------------|


Pre chorus:

G|-----------------------------------| x3
D|-----------------------------------|
A|--------------------5-5-4-2-2-2-2--|
E|--2-2-2-2-2-2-2-2-2----------------|

G|-----------------------------------| x1
D|-----------------------------------|
A|--------------------5-5-4-7-7-7-7--|
E|--2-2-2-2-2-2-2-2-2----------------|

Chorus: x8

G|-----------------------------------|
D|-----------------------------------|
A|------------------5-5-5-4-2-2-2-2--|
E|--2-2-5-2-5-5-5-2------------------|


Verse: x4

G|-----------------------------------|
D|-----------------------------------|
A|--------------------5-5-4-2-2-2-2--|
E|--2-2-2-2-2-2-2-2-2----------------|


Pre chorus:

G|-----------------------------------| x3
D|-----------------------------------|
A|--------------------5-5-4-2-2-2-2--|
E|--2-2-2-2-2-2-2-2-2----------------|

G|-----------------------------------| x1
D|-----------------------------------|
A|--------------------5-5-4-7-7-7-7--|
E|--2-2-2-2-2-2-2-2-2----------------|


Chorus: x8

G|-----------------------------------|
D|-----------------------------------|
A|------------------5-5-5-4-2-2-2-2--|
E|--2-2-5-2-5-5-5-2------------------|


Bridge: x6

G|-----------------------------------|
D|-----------------------------------|
A|--9-9-9-9-9-9-9-9-5-5-5-5-5-5-5-5--|
E|-----------------------------------|

G|-----------------------------------|
D|-----------------------------------|
A|-----------------------------------|
E|--2-2-2-2-2-2-2-2-5-5-5-5-5-5-5-5--|


Outro: x8

G|-----------------------------------|
D|-----------------------------------|
A|------------------5-5-5-4-2-2-2-2--|
E|--2-2-5-2-5-5-5-2------------------|

Finish on:

G|-----|
D|-----|
A|-----|
E|--2\-|

\ = slide down

Almost there ...

Sign in to get your own page with links to favourite songs and more. You are just one click away...

Login with Facebook Login with Google