Log in

One click and you are in

Login with Facebook Login with Google

Why sign up and log in

Guitar Tabs Explorer
Pretty Vicious bass tabs for I dont wanna know

I Don't Wanna Know bass tab - Pretty Vicious

Pretty Vicious bass tabs for I dont wanna know

Bass tabs

Tuning: Standard (E A D G)

"I Don't Wanna Know"
by Pretty Vicious
from Album "Beauty Of Youth" (2019)

Pickstyle

Verse 1:
 (0:12)
G|------------|------------|------------|------------|
D|------------|------------|------------|------------|
A|------------|------------|------------|4--2--0--2--|
E|2-----2-----|0--2--0--2--|---2--2-----|------------|

G|------------|------------|------------|------------|------------|------------|------------|------------|
D|------------|------------|------------|------------|------------|------------|------------|------------|
A|------------|------------|------------|------------|------------|------------|------------|------------|
E|2-----2-----|0--2--0--2--|---2--2-----|2--2--2--0/-|5-----5-----|5--5--5--5/-|7--7--7--7--|7--7--7--7\-|

 (0:21)
G|------------|------------|------------|------------|
D|------------|------------|------------|------------|
A|------------|------------|------------|4--2--0--2--|
E|2-----2-----|0--2--0--2--|---2--2-----|------------| x2

G|------------|------------|------------|------------|------------|------------|------------|------------|
D|------------|------------|------------|------------|------------|------------|------------|------------|
A|------------|------------|------------|------------|------------|------------|------------|------------|
E|2-----2-----|0--2--0--2--|---2--2-----|2--2--2--0--|5-----5-----|5--5--5--5/-|7--7--7--7--|7--7--7--7\-|

G|------------|------------|------------|------------|
D|------------|------------|------------|------------|
A|------------|------------|------------|------------|
E|2-----2-----|0--2--0--2--|---2--2-----|2--2--2--x--|


Pre-Chorus:
 (0:36)
G|------------|------------|------------|------------|------------|------------|------------|------------|
D|------------|------------|------------|------------|------------|------------|------------|------------|
A|------2--2--|------2--2--|------2--2--|------2--2--|------------|------------|------------|------------|
E|3--3--------|3--3--------|3--3--------|3--3--------|2-----2-----|0--2--0--2--|---2--2-----|2--2--2--2--|

G|------------|------------|------------|------------|------------|------------|------------|------------|
D|------------|------------|------------|------------|------------|------------|------------|------------|
A|------2--2--|------2--2--|------2--2--|------2--2--|------------|------------|------------|------------|
E|4--4--------|4--4--------|4--4--------|4--4--------|2-----2-----|0--2--0--2--|---2--2-----|2--2--2-(0)-|


//Chorus consists of two slightly different parts


Chorus:
 (0:47)
G|------------|------------|------------|------------|------------|------------|------------|------------|
D|------------|------------|------------|------------|------------|------------|------------|------------|
A|------------|------------|------------|------------|------------|------------|------------|------------|
E|2-----2/-7--|7-----7--7\-|5-----5/-9--|9-12--0--2--|2-----2--2/-|7-----7--7\-|5-----5--5/-|9-12--------|

G|------------|------------|------------|------------|------------|------------|------------|------------|
D|------------|------------|------------|------------|------------|------------|------------|------------|
A|------------|------------|------------|------------|------------|2--2--2--2--|------------|------------|
E|2-----2--2/-|7-----7--7\-|5-----5--5/-|9-12--0--2--|2--2--2--2--|------------|5--5--5--5--|5--5--5--5--|

 (0:59)
G|------------|------------|------------|------------|------------|------------|------------|------------|
D|------------|------------|------------|------------|------------|------------|------------|------------|
A|------------|------------|------------|------------|------------|------------|------------|------------|
E|2-----2--2/-|7-----7--7\-|5-----5--5/-|9-12--0--2--|2-----2--2/-|7-----7--7\-|5-----5--5/-|9-12--------|

G|------------|------------|------------|------------|------------|------------|------------|------------|
D|------------|------------|------------|------------|------------|------------|------------|------------|
A|------------|------------|------------|------------|------------|2--2--2--2--|------------|------------|
E|2-----2/-7--|7-----7--5\-|5-----5--5/-|9-12--0--2--|2--2--2--2--|------------|5--5--5--5--|5--5--5--5--|

 (1:11)
G|------------|------------|------------|------------|------------|------------|------------|------------|
D|------------|------------|------------|------------|------------|------------|------------|------------|
A|------------|------------|------------|------------|------------|------------|------------|4--2--0--2--|
E|---2-----2--|---2-----2--|2--2-----2--|---2-----2--|2--2-----2--|2--2-----2--|2-----2-----|------------|


Verse 2:
 (1:17)
G|------------|------------|------------|------------|
D|------------|------------|------------|------------|
A|------------|------------|------------|4--2--0--2--|
E|2-----2-----|0--2--0--2--|---2--2-----|------------|

G|------------|------------|------------|------------|------------|------------|------------|------------|
D|------------|------------|------------|------------|------------|------------|------------|------------|
A|------------|------------|------------|------------|------------|------------|------------|------------|
E|2-----2-----|0--2--0--2--|---2--2-----|2--2--2--0--|5-----5-----|5--5--5--5/-|7--7--7--7--|7--7--7--7\-|

 (1:26)
G|------------|------------|------------|------------|------------|------------|------------|------------|
D|------------|------------|------------|------------|------------|------------|------------|------------|
A|------------|------------|---------0--|4--2--0--2--|------------|------------|------------|4--2--0--2--|
E|2-----2-----|0--2--0--2--|---2--2-----|------------|2-----2-----|0--2--0--2--|---2--2-----|------------|

G|------------|------------|------------|------------|------------|------------|------------|------------|
D|------------|------------|------------|------------|------------|------------|------------|------------|
A|------------|------------|------------|---------2--|------------|------------|------------|------------|
E|2-----2-----|0--2--0--2--|---2--2-----|2--2--2-----|5-----5-----|5--5--5--5/-|7--7--7--7--|7--7--7--7--|

G|------------|------------|------------|------------|
D|------------|------------|------------|------------|
A|------------|------------|------------|-----(0)(2)-|
E|2-----2-----|0--2--0--2--|---2--2-----|2--2--------|


Pre-Chorus:
 (1:41)
G|------------|------------|------------|------------|------------|------------|------------|------------|
D|------------|------------|------------|------------|------------|------------|------------|------------|
A|------2--2--|------2--2--|------2--2--|------2--2--|------------|------------|------------|------------|
E|3--3--------|3--3--------|3--3--------|3--3--------|2-----2-----|0--2--0--2--|---2--2-----|2--2--2--2--|

G|------------|------------|------------|------------|------------|------------|------------|------------|
D|------------|------------|------------|------------|------------|------------|------------|------------|
A|------2--2--|------2--2--|------2--2--|------2--2--|------------|------------|------------|-----(2)----|
E|4--4--------|4--4--------|4--4--------|4--4--------|2-----2-----|0--2--0--2--|---2--2-----|2--2--------|


Chorus:
 (1:53)
G|------------|------------|------------|------------|------------|------------|------------|------------|
D|------------|------------|------------|------------|------------|------------|------------|------------|
A|------------|------------|------------|------------|------------|------------|------------|------------|
E|2-----2/-7--|7-----7--7\-|5-----5/-9--|9-12--0--2--|2-----2--2/-|7-----7--7\-|5-----5--5/-|9-12--------|

G|------------|------------|------------|------------|------------|------------|------------|------------|
D|------------|------------|------------|------------|------------|------------|------------|------------|
A|------------|------------|------------|------------|------------|2--2--2--2--|------------|------------|
E|2-----2--7/-|7-----7--7\-|5-----5--5/-|9-12--0--2--|2--2--2--2--|------------|5--5--5--5--|5--5--5--5--|

 (2:05)
G|------------|------------|------------|------------|------------|------------|------------|------------|
D|------------|------------|------------|------------|------------|------------|------------|------------|
A|------------|------------|------------|------------|------------|------------|------------|------------|
E|2-----2--2/-|7-----7--7\-|5-----5--5/-|9-12--0--2--|2-----2--2/-|7-----7--7\-|5-----5--5/-|9-12--------|

G|------------|------------|------------|------------|------------|------------|------------|------------|
D|------------|------------|------------|------------|------------|------------|------------|------------|
A|------------|------------|------------|------------|------------|2--2--2--2--|------------|------------|
E|2-----2/-7--|7-----7--5\-|5-----5--5/-|9-12--0--2--|2--2--2--2--|------------|5--5--5--5--|5--5--5--5--|

 (2:17)
G|------------|------------|------------|------------|------------|------------|------------|------------|
D|------------|------------|------------|------------|------------|------------|------------|------------|
A|------------|------------|------------|------------|------------|------------|------------|------------|
E|---2-----2--|---2-----2--|2--2-----2--|---2-----2--|2--2-----2--|2--2-----2--|2-----2-----|2--2--2--3--|

G|------------|
D|------------|
A|------------|
E|2-----------|
 let ring


Bridge:
 (2:35)
G|------------|------------|------------|------------|------------|------------|------------|------------|
D|------------|------------|------------|------------|------------|------------|------------|------------|
A|------------|------------|------------|------------|------------|------------|------------|------------|
E|2-----2-----|2--0--2--4--|5-----5-----|5--5--7--5\-|2-----2-----|2--0--2--4--|5--5--5--5--|5--5--7--5\-| x2

G|------------|------------|------------|------------|------------|------------|------------|------------|
D|------------|------------|------------|------------|------------|------------|------------|------------|
A|------------|------------|------------|------------|------------|------------|------------|------------|
E|2--2--2--2--|2--0--2--4--|5--5--5--5--|5--5--7--5\-|2--2--2--2--|2--0--2--4--|5--5--5--5--|5--5--7--5\-|

 (2:53)
G|------------|------------|------------|------------|------------|------------|------------|------------|
D|------------|------------|------------|------------|------------|------------|------------|------------|
A|------------|------------|------------|------------|------------|------------|------------|------------|
E|2--2--2--2--|2--0--2--4--|5--5--5--5--|5--5--7--5\-|2--2--2--2--|2--0--2--4--|5--5--5--5--|4--4--4--4--|

G|------------|------------|------------|------------|------------|------------|------------|------------|
D|------------|------------|------------|------------|------------|------------|------------|------------|
A|------------|------------|------------|------------|------------|------------|------------|------------|
E|2--2--2--2--|2--2--2--2--|2--2--2--2--|2--2--2--2--|2--2--2--2--|2--2--2--2--|2--2--2--2--|2--2--2--2--|


Chorus:
 (3:05)
G|------------|------------|------------|------------|------------|------------|------------|------------|
D|------------|------------|------------|------------|------------|------------|------------|------------|
A|------------|------------|------------|------------|------------|------------|------------|------------|
E|2-----2/-7--|7-----7--7\-|5-----5/-9--|9-12--0--2--|2-----2--2/-|7-----7--7\-|5-----5--5/-|9-12--------|

G|------------|------------|------------|------------|------------|------------|------------|------------|
D|------------|------------|------------|------------|------------|------------|------------|------------|
A|------------|------------|------------|------------|------------|2--2--2--2--|------------|------------|
E|2-----2/-7--|7-----7--7\-|5-----5--5/-|9-12--0--2--|2--2--2--2--|------------|5--5--5--5--|5--5--5--5--|

(3:17)
G|------------|------------|------------|------------|------------|------------|------------|------------|
D|------------|------------|------------|------------|------------|------------|------------|------------|
A|------------|------------|------------|------------|------------|------------|------------|------------|
E|2-----2--2/-|7-----7--7\-|5-----5--5/-|9-12--0--2--|2-----2--2/-|7-----7--7\-|5-----5--5/-|9-12--------|

G|------------|------------|------------|------------|------------|------------|------------|------------|
D|------------|------------|------------|------------|------------|------------|------------|------------|
A|------------|------------|------------|------------|------------|---------2--|0--0--0--0--|0--0--0--0--|
E|2-----2--2/-|7-----7--5\-|5-----5--5/-|9-12--0--2--|2--2--2--2--|2--2--2-----|------------|------------|


Outro:
(3:29)
G|------------|------------|------------|------------|------------|------------|------------|------------|
D|------------|------------|------------|------------|------------|------------|------------|------------|
A|------------|2-----2\-0--|0-----0--0/-|4--4--------|------------|2-----2\-0--|0-----0/----|4--4--------|
E|2-----2--2--|------------|------------|------0--2--|2-----2--2--|------------|------------|------------|

G|------------|------------|------------|------------|------------|------------|------------|------------|
D|------------|------------|------------|------------|------------|------------|------------|------------|
A|------------|2-----2\-0--|0-----0--0/-|4--4--------|------------|2--2--2--2--|0--0--0--0--|2--0--2--0--|
E|2-----2--0--|------------|------------|------0--2--|2--2--2--2--|------------|------------|------------|

 (3:41)
G|------------|------------|------------|------------|------------|------------|------------|------------|
D|------------|------------|------------|------------|------------|------------|------------|------------|
A|------------|------------|------------|------------|------------|------------|------------|------------|
E|---2-----2--|---2-----2--|2--2-----2--|---2-----2--|2--2-----2--|2--2-----2--|2-----2-----|2--2--2--2--|

G|------------|
D|------------|
A|------------|
E|2-----------|
 let ring


************************************
|
| / Slide up
| \ Slide down
| x Dead note
|(n) Ghost-note
|
************************************

Almost there ...

Sign in to get your own page with links to favourite songs and more. You are just one click away...

Login with Facebook Login with Google