Log in

One click and you are in

Login with Facebook Login with Google

Why sign up and log in

Guitar Tabs Explorer
Igor Presnyakov tabs for Hes a pirate

Guitar tabs with lyrics

He's a Pirate


                                                            Igor Presnyakov
Guitar


     H                                                 A chord diagramE MajorE  S S
A chord diagramE MajorE||-----------------------------------------------------------|
A chord diagramBB||---------------------------------------------------------1-|
A chord diagramG+G||-------------------------------------------------------2---|
A chord diagramD MajorD||-----------------------------------------------------------|
A chord diagramA augmentedA||-----------------------------------------------------------|
A chord diagramE MajorE||-----------------------------------------------------------|


    A chord diagramDmDm         A chord diagramA#A#            A chord diagramA minorAm           A chord diagramDmDm
    A chord diagramE MajorE  S S S S A chord diagramE MajorE  S S S S    A chord diagramE MajorE  S S S S   E.   S S S
|------------0-1--1---1-3-|--0--0--------------------|
|---3--3---3---3--3-------|--1--1---3-1-1g3~-------1-|
|*--2--2-------3--3-------|--2--2---------2------2---|
|*--0--0-x----------x-----|-------x-------0----x-----|
|--------x-----1--1-x-----|--0--0-x------------x-----|
|--------x----------x-----|-------x------------x-----|


  A chord diagramA#A#         A chord diagramFF             A chord diagramC majorC            A chord diagramDmDm
  A chord diagramE MajorE  S S S S A chord diagramE MajorE  S S S S    A chord diagramE MajorE  S S S S   E.   S S S
-----------0-1--1---1-3-|--0--0--------------------|
--3--3---3---1--1-------|--1--1---3-1-1g3~-------1-|
--3--3-------2--2-------|--0--0---------2------2---|
-------x----------x-----|-------x-------0----x-----|
--1--1-x----------x-----|--3--3-x------------x-----|
-------x-----1--1-x-----|-------x------------x-----|

             A chord diagramA#A#            A chord diagramG minorGm         A chord diagramDmDm
  A chord diagramE MajorE  S S S S A chord diagramE MajorE  S S S S    A chord diagramE MajorE  S S S S S  A chord diagramE MajorE   S S S
-----------1-3--3---3-5-|--6--6---5-3-5--L-------0-|
--3--3---3---3--3-------|--3--3----------3~----3---|
--2--2-------3--3-------|--3--3--------------------|
--0--0-x----------x-----|-------x-----0--L---x-----|
-------x-----1--1-x-----|-------x------------x-----|
-------x----------x-----|--3--3-x------------x-----|


  A chord diagramA#A#         A chord diagramDmDm            A chord diagramA augmentedA                         A chord diagramA augmentedA          A chord diagramDmDm     A chord diagramC majorC
  A chord diagramE MajorE  S S S S E.   S S S    A chord diagramE MajorE  S S S S E.  S S S      A chord diagramE MajorE  S S S S A chord diagramE MajorE  S S A chord diagramE MajorE
--1--1---3-5----------1-|--0--0---1---0----------||--0--0--------------0--|
--3--3-------3~-----3---|--2--2-----3-2-------1--||--2--2---3-1-3--3---1--|
--3--3-------2----------|--2--2-------2-----2---*||--2--2-------2--2---0--|
-------x-----0----x-----|-------x---------x-----*||-------x-----0--0-x----|
--1--1-x----------x-----|--0--0-x-----0---x------||--0--0-x----------x-3--|
-------x----------x-----|-------x---------x------||-------x----------x----|


  A chord diagramA#A#        A chord diagramA augmentedA                    A chord diagramG minorGm                   A chord diagramA augmentedA
  A chord diagramE MajorE  S S A chord diagramE MajorE  A chord diagramE MajorE  A chord diagramE MajorE  S S    E.  E.  E.  S S S    E.  E.  S A chord diagramE MajorE  S A chord diagramE MajorE
--1--1---3--5---------|----------6---------|----------0-0-------|
--3--3---3--2-----6-3-|----------3-----6-3-|----------2-2----3--|
--3--3------2-----2-2-|--2-------3-----3-3-|--3-------2-2----2--|
-------x-------x------|--2---x-------x-----|--5---x--------x----|
--1--1-x-1--0--x--0-0-|--0---x-------x-----|------x---0-0--x----|
-------x-------x------|------x---3---x-3-3-|--3---x--------x----|


            A chord diagramDmDm                    A chord diagramC majorC              A chord diagramFF      A chord diagramDmDm
  E.  S S S A chord diagramE MajorE  S S A chord diagramE MajorE     S A chord diagramE MajorE  E.  A chord diagramE MajorE  S S A chord diagramE MajorE     S A chord diagramE MajorE  E.  A chord diagramE MajorE  S S A chord diagramE MajorE
--1---------5--5---5--|--6-5------3--3---3--|--3-5------5--5---5--|
--2-----6-8-6--6---6--|--6-6------5--5---5--|--5--------6--6---6--|
--2---------7--7---7--|--7-7------5--5---5--|--5-5------7--7---7--|
------x-----0--0-x-0--|--0-0--x--------x----|----3--x---0--0-x-0--|
--0---x----------x----|-------x---3--3-x-3--|--3----x--------x----|
------x----------x----|-------x--------x----|-------x--------x----|


           A chord diagramA augmentedA            A chord diagramDmDm          A chord diagramDmDm       A chord diagramC majorC
  S A chord diagramE MajorE  E.  A chord diagramE MajorE  S S A chord diagramE MajorE     Q    S S    E.  S A chord diagramE MajorE  A chord diagramE MajorE  A chord diagramE MajorE  A chord diagramE MajorE
--6-5------3--1---0--|---------0-|--1---3-5--3--1--0--|
--6-6------2--2---2--|--3----3---|--------------------|
--7-7------2--2---2--|--2--------|--------------------|
--0-0--x--------x----|--0--------|--0-----------------|
-------x---0--0-x-0--|-----------|-----------3--------|
-------x--------x----|-----------|--------------------|


  A chord diagramFF        A chord diagramC majorC           A chord diagramFF        A chord diagramA augmentedA           A chord diagramDmDm
                                                     ^
  A chord diagramE MajorE  A chord diagramE MajorE  A chord diagramE MajorE  Q    S S    E.  S A chord diagramE MajorE  A chord diagramE MajorE  A chord diagramE MajorE  A chord diagramE MajorE     E.  S A chord diagramE MajorE  Q    S S
--1--3--5--3----1-3-|--5---3-1--0--1--0--|------0-----------0-|
--------------------|--------------------|--3-----1--3----3---|
--------------------|--------------------|-----------2--------|
--3-----------------|--3-----------------|--0--------0--------|
-----------3--------|-----------0--------|--------------------|
--------------------|--------------------|--------------------|

           A chord diagramC majorC           A chord diagramFF        A chord diagramA#A#          A chord diagramDmDm       A chord diagramG minorGm
  E.  S A chord diagramE MajorE  A chord diagramE MajorE  A chord diagramE MajorE  A chord diagramE MajorE     A chord diagramE MajorE  A chord diagramE MajorE  A chord diagramE MajorE  Q    S S    A chord diagramE MajorE  A chord diagramE MajorE  A chord diagramE MajorE  A chord diagramE MajorE  A chord diagramE MajorE  A chord diagramE MajorE
--1---0-1--3--1--3--|--5--3------------0-|--1--3--5--6-----3--|
--3---3-3--1--1--1--|--------6--3----3---|--3--3--3--3--3--3--|
--2--------0--------|--5--5--5--3--------|--2--2--2--3--3--3--|
--0---0-0-----------|--3--3--3-----------|--0--0--0-----------|
-----------3--3--3--|-----------1--------|--------------------|
--------------------|--------------------|-----------3--3--3--|


  Its actually A, but this sounds better with A chord diagramDmDm
  A chord diagramDmDm
  A chord diagramE MajorE                                              S S A chord diagramE MajorE  A chord diagramE MajorE  S S A chord diagramE MajorE
--1------------------------------------------------3-0-------0----|
--3-----------------------------------------------------3------2--|
--2----------------------------------------------2------2--2------|
--0-----------------------------------------------------0---------|
------------------------------------------------------------------|
------------------------------------------------------------------|


  A chord diagramDmDm        A chord diagramG minorGm           A chord diagramFF          A chord diagramC majorC           A chord diagramG minorGm        A chord diagramDmDm
  E.  S S S E.  S S S    A chord diagramE MajorE  A chord diagramE MajorE  A chord diagramE MajorE  S A chord diagramE MajorE  S S S    E.  S S S E.  S S S
--5---------6---------|--5--5--5--5-3--------|--3---------1---------|
--6---------3---------|--6--6--6--5-5--------|--3---------3---------|
--7---------3---------|--5--5--5--5-5--------|--3---------2---------|
--0---0-0-0-----------|----------------------|------------0---0-0-0-|
----------------------|--8--8--8--3-3--3-3-3-|----------------------|
------------3---3-3-3-|----------------------|--3---3-3-3-----------|


  A chord diagramA augmentedA        A chord diagramDmDm           A chord diagramDmDm        A chord diagramG minorGm           A chord diagramFF        A chord diagramC majorC
           ^
  A chord diagramE MajorE  A chord diagramE MajorE  A chord diagramE MajorE  E.  S S S    E.  S S S E.  S S S    A chord diagramE MajorE  A chord diagramE MajorE  A chord diagramE MajorE  S A chord diagramE MajorE  S S S
--0--1--0------------|--5---------6---------|--5--5--5--5-3--------|
--2--2--2--3-------6-|--6-------6-3-------3-|--6--6--6--5-5------5-|
--2--2--2--2-----7---|--7-----7---3-----3---|--5--5--5--5-5----5---|
-----------0---0-----|--0---0---------------|----------------------|
--0--0--0------------|----------------------|--8--8--8--3-3--3-----|
---------------------|------------3---3-----|----------------------|


  A chord diagramG minorGm        A chord diagramDmDm           A chord diagramA augmentedA        A chord diagramDmDm           A chord diagramDmDm        A chord diagramG minorGm
                                  ^
  E.  S S S E.  S S S    A chord diagramE MajorE  A chord diagramE MajorE  A chord diagramE MajorE  E.  S S S    E.  S S S E.  S S S
--3---------1---------|--0--1--0------------|--5---------6---------|
--3-------3-3-------3-|--2--2--2--3-------6-|--6-------6-3-------3-|
--3-----3---2-----2---|--2--2--2--2-----7---|--7-----7---3-----3---|
------------0---0-----|-----------0---x-----|--0---x---------x-----|
----------------------|--0--0--0------x-----|------x---------x-----|
--3---3---------------|---------------x-----|------x-----3---x-----|


  A chord diagramFF         A chord diagramC majorC             A chord diagramG minorGm        A chord diagramDmDm           A chord diagramA augmentedA         A chord diagramDmDm
                                                           ^
  A chord diagramE MajorE  S S A chord diagramE MajorE  S A chord diagramE MajorE  S S S    E.  S S S E.  S S S    A chord diagramE MajorE  S S A chord diagramE MajorE  E.  S S S
--5--5---5--5-3--------|--3---------1---------|--0--1---0------------|
--6--6---6--5-5------5-|--3-------3-3-------3-|--2--2---2--3-------6-|
--5--5---5--5-5----5---|--3-----3---2-----2---|--2--2---2--2-----7---|
-------x---------x-----|------x-----0---x-----|-------x----0---x-----|
--8--8-x-8--3-3--x-----|------x---------x-----|--0--0-x-0------x-----|
-------x---------x-----|--3---x---------x-----|-------x--------x-----|


  A chord diagramDmDm        A chord diagramG minorGm           A chord diagramFF         A chord diagramC majorC             A chord diagramG minorGm        A chord diagramDmDm
  E.  S S S E.  S S S    A chord diagramE MajorE  S S A chord diagramE MajorE  S A chord diagramE MajorE  S S S    E.  S S S E.  S S S
--5---------6---------|--5--5---8--5-3--------|--3---------1---------|
--6-------6-3-------3-|--6--6---6--5-5------5-|--3-------3-3-------3-|
--7-----7---3-----3---|--5--5---5--5-5----5---|--3-----3---2-----2---|
--0---x---------x-----|-------x-7-------x-----|------x-----0---x-----|
------x---------x-----|--8--8-x----3-3--x-----|------x---------x-----|
------x-----3---x-----|-------x---------x-----|--3---x---------x-----|


  A chord diagramA augmentedA         A chord diagramDmDm
            ^
  A chord diagramE MajorE  S S A chord diagramE MajorE  Q.
--0--1---0---------||
--2--2---2--3------||
--2--2---2--2------||
-------x----0------||
--0--0-x-0---------||
-------x-----------||



Duration 🏷Legend
---------------
W - whole
H - half
Q - quarter
A chord diagramE MajorE - 8th
S - 16th
T - 32nd
X - 64th
. - note dotted
|-n-|  - n-tuplets


Tablature 🏷Legend
----------------
L - tied note
x - dead note
g - grace note
(n) - ghost note
> - accentuded note
NH - natural harmonic
AH - artificial harmonic
TH - tapped harmonic
SH - semi harmonic
PH - pitch harmonic
h - hammer on
p - pull off
b - bend
br - bendRelease
pb - preBend
pbr - preBendRelease
brb - bendReleaseBend
\n/ - tremolo bar dip
\n - tremolo bar dive
-/n - tremolo bar Release up
/n\ - tremolo bar inverted dip
/n - tremolo bar return
-\n - tremolo bar Release down
S - shift slide
s - legato slide
/ -  slide into from below or out of upwards
\ -  slide into from above or out of downwards
~ - vibrato
W - wide vibrato
tr - trill
TP - tremolo picking
T - tapping
S - slap
P - pop
< - fade in
^ - brush up

Almost there ...

Sign in to get your own page with links to favourite songs and more. You are just one click away...

Login with Facebook Login with Google