Log in

One click and you are in

Login with Facebook Login with Google

Why sign up and log in

Guitar Tabs Explorer
Elvis Presley bass tabs for Only the strong survive

Only The Strong Survive bass tab by Elvis Presley

Elvis Presley bass tabs for Only the strong survive

Bass tabs

Only the Strong Survive
Bass Tab


Verse

|----------------------------------------|
|-6----6----6----6----6----6----6----6---|
|----------------------------------------|
|----------------------------------------|
Chorus

|-------------------------------------------------------------------|
|---6-6-----6-6-----6-6-----6-6-----8-8-----8-8-----8-8-----8-8-----|
|-6-----6-6-----6-6-----6-6-----6-6-----8-8-----8-8-----8-8-----8-8-|
|-------------------------------------------------------------------|

|-3-----5------6---5-8----|
|---3-6------6---6--------|
|-------------------------|
|-------------------------|


Ending (play twice with different endings)

|----------------------------------------------------------------|
|-6-6-----6-6-----6-------------6-6-----6-6-----6-6-----6-6------|
|-----6-6-----6-6---6--6--8--10-----6-6-----6-6-----6-6-----6-6--|
|----------------------------------------------------------------|

|---------------------------------|  |-3-----5------6---5-8----|* First time
|-8-8-----8-8-----8-8-----8-8-----|  |---3-6------6---6--------|
|-----8-8-----8-8-----8-8-----8-8-|  |-------------------------|
|---------------------------------|  |-------------------------|

|----------------------------------------------------------------|* Second time
|-8-8-----8-8-----8-8-----8-8-----6-6-----6-6-----6--------------|
|-----8-8-----8-8-----8-8-----8-8-----6-6-----6-6---6--6--8--10--|
|----------------------------------------------------------------|


Verse (x6)

Chorus

Verse (x4)

Chorus

Verse (x2)

Chorus

Almost there ...

Sign in to get your own page with links to favourite songs and more. You are just one click away...

Login with Facebook Login with Google