Log in

One click and you are in

Login with Facebook Login with Google

Why sign up and log in

Guitar Tabs Explorer
Elvis Presley bass tabs for Maries the name of his latest flame

Maries The Name Of His Latest Flame bass tab by Elvis Presley

Elvis Presley bass tabs for Maries the name of his latest flame

Bass tabs

Marie’s The Name Of His Latest Flame
Original version by Del Shannon this version by Elvis Presley reached #1
In UK November 1961. Bass performance Bob Moore. Tab by bass50611. This was
The first single I ever bought as a young 13 year-old so welcome to my
Tab of this classic sixties pop song. Hope you like my version and this is
How I played it with one of my bands many times.
Intro:
G|-------------------------------------------------------------|
D|-5--5-5--5-5----------5--5-5--5-5----------5--5-5--5-5-------|
A|--------------7--7-----------------7--7-----------------7--7-|
E|-------------------------------------------------------------|


Verse 1:
G|------------------------------------------------------------------------|
D|-5--5-5--5-5-------5--5-5--5-5-------5--5-5--5-5-------5--5-5--5-5------|
A|-------------7--7--------------7--7--------------7—7---------------7--7-|
E|------------------------------------------------------------------------|


Chorus:
G|------------------------------------------------------------|
D|---5------2--5----4--7---5--5-5--5-5-------5--5-5--5-5------|
A|-7---5--3-------5--------------------7--7--------------7--7-|
E|------------------------------------------------------------|


Verse 2:
G|------------------------------------------------------------------------|
D|-5--5-5--5-5-------5--5-5--5-5-------5--5-5--5-5-------5--5-5--5-5------|
A|-------------7--7--------------7--7--------------7—7---------------7--7-|
E|------------------------------------------------------------------------|

Chorus:
G|------------------------------------------------------------|
D|---5------2--5----4--7---5--5-5--5-5-------5--5-5--5-5------|
A|-7---5--3-------5--------------------7--7--------------7--7-|
E|------------------------------------------------------------|


Bridge:               (Play This Bit x2)
G|------------------------------------------------|
D|---4--7----2--5----4--7----2--7----4--7----2--5-|
A|-5-------3-------5-------3-------5-------3------|
E|------------------------------------------------|

G|-----------------------------------------------------|
D|---4--7----2--5---5--5-5--5-5-------5--5-5--5-5------|
A|-5-------3--------------------7--7--------------7--7-|
E|-----------------------------------------------------|


Verse 3:
G|------------------------------------------------------------------------|
D|-5--5-5--5-5-------5--5-5--5-5-------5--5-5--5-5-------5--5-5--5-5------|
A|-------------7--7--------------7--7--------------7—7---------------7--7-|
E|------------------------------------------------------------------------|


Chorus:
G|------------------------------------------------------------|
D|---5------2--5----4--7---5--5-5--5-5-------5--5-5--5-5------|
A|-7---5--3-------5--------------------7--7--------------7--7-|
E|------------------------------------------------------------|


Bridge:               (Play This Bit x2)
G|------------------------------------------------|
D|---4--7----2--5----4--7----2--7----4--7----2--5-|
A|-5-------3-------5-------3-------5-------3------|
E|------------------------------------------------|

G|-----------------------------------------------------|
D|---4--7----2--5---5--5-5--5-5-------5--5-5--5-5------|
A|-5-------3--------------------7--7--------------7--7-|
E|-----------------------------------------------------|


Verse 3:
G|------------------------------------------------------------------------|
D|-5--5-5--5-5-------5--5-5--5-5-------5--5-5--5-5-------5--5-5--5-5------|
A|-------------7--7--------------7--7--------------7—7---------------7--7-|
E|------------------------------------------------------------------------|


Chorus 2:
G|------------------------------------------|
D|---5------2--5----4--7---5--5-5--5-5------|
A|-7---5--3-------5--------------------7--7-|
E|------------------------------------------|


Outro:       (Repeat To Fade/End)
G|-----------------------------------|
D|---2--5----4--7---5--5-5--5-5------|
A|-3-------5--------------------7--7-|
E|-----------------------------------|

Almost there ...

Sign in to get your own page with links to favourite songs and more. You are just one click away...

Login with Facebook Login with Google