Log in

One click and you are in

Login with Facebook Login with Google

Why sign up and log in

Guitar Tabs Explorer
Elvis Presley bass tabs for Loving arms

Bass tabs

Tuning: Standard (E A D G)

Tabbed by Leo Chiurco in request of ChristopherGorvan


Intro:
G|---------------------------------|---------------------------------|
D|-------------9-9-9~--------------|-------------9/11\9~-------------|
A|---------------------------------|---------------------------------|
E|-0~------------------------------|-0~------------------------------|
  1 + + + 2 + + + 3 + + + 4 + + +  1 + + + 2 + + + 3 + + + 4 + + +

G|---------------------------------|---------------------------------|
D|-------------9-9-9~--------------|-------------9/11\9~-------------|
A|---------------------------------|---------------------------------|
E|-0~------------------------------|-0~------------------------------|
  1 + + + 2 + + + 3 + + + 4 + + +  1 + + + 2 + + + 3 + + + 4 + + +
Verse 1: "If you could see me now ..."
G|---------------------------------|---------------------------------|
D|---------------------------------|---------------------------------|
A|---------------------------------|------------/4---2~----------2---|
E|-0~------.---0-0-0~------2---4---|-5~------------------------------|
  1 + + + 2 + + + 3 + + + 4 + + +  1 + + + 2 + + + 3 + + + 4 + + +

G|---------------------------------|---------------------------------|
D|-2~------------------------------|---------------------------------|
A|---------------------------------|------------/4---2~----------2---|
E|-------------0-0-0~------2---4---|-5~------------------------------|
  1 + + + 2 + + + 3 + + + 4 + + +  1 + + + 2 + + + 3 + + + 4 + + +

G|---------------------------------|---------------------------------|
D|-2~------------------------------|---------------------------------|
A|---------------------------------|---------------------------------|
E|-------------0-0-0~------2---4---|-5~----------5---7~----------7---|
  1 + + + 2 + + + 3 + + + 4 + + +  1 + + + 2 + + + 3 + + + 4 + + +

G|---------------------------------|---------------------------------|
D|-----------------2~------2-------|---------------------------------|
A|-------------2---------2-----2---|---------------------------------|
E|-0~------------------------------|-0~----------0-0-0---0---2---4---|
  1 + + + 2 + + + 3 + + + 4 + + +  1 + + + 2 + + + 3 + + + 4 + + +

G|---------------------------------|---------------------------------|
D|---------------------------------|-2~------------------------------|
A|------------/4---2~----------2---|-------------2-------------------|
E|-5~------------------------------|-----------------0~------2---4---|
  1 + + + 2 + + + 3 + + + 4 + + +  1 + + + 2 + + + 3 + + + 4 + + +

G|---------------------------------|---------------------------------|
D|---------------------------------|---------------------------------|
A|------------/4---2~----------2---|---------------------------------|
E|-5~------------------------------|-0~----------0-0-0~------2---4---|
  1 + + + 2 + + + 3 + + + 4 + + +  1 + + + 2 + + + 3 + + + 4 + + +

G|---------------------------------|------------/9----------------------------------|
D|---------------------------------|----------------------9--11-9-------------------|
A|---------------------------------|----------------------------------9--11-9--7----|
E|-5~----------5---7~----------7---|-0~---------------------------------------------|
  1 + + + 2 + + + 3 + + + 4 + + +  1 + + + 2 + + + 3 + + + 4 + + +

Chorus 1: "'Cause I've been too long in the wind..."
G|---------------------------------|---------------------------------|
D|---------------------------------|---------------------------------|
A|---------------------------------|---------------------------------|
E|-5~----------5---7~----------7---|-0~----------0-2-5~------5~------|
  1 + + + 2 + + + 3 + + + 4 + + +  1 + + + 2 + + + 3 + + + 4 + + +

G|---------------------------------|------------/9----------------------------------|
D|---------------------------------|----------------------9--11-9-------------------|
A|-----------------2~----------2---|----------------------------------9--11-9--7----|
E|-2~----------2-------------------|-0~---------------------------------------------|
  1 + + + 2 + + + 3 + + + 4 + + +  1 + + + 2 + + + 3 + + + 4 + + +

G|---------------------------------|---------------------------------|
D|---------------------------------|-----------------------------7---|
A|---------------------------------|---------------------------------|
E|-5~----------5---7~----------7---|-0~----------0-2-5~--------------|
  1 + + + 2 + + + 3 + + + 4 + + +  1 + + + 2 + + + 3 + + + 4 + + +

G|---------------------------------|
D|---------------------------------|
A|-9~------------------------------|
E|-----------------7~----------7---|
  1 + + + 2 + + + 3 + + + 4 + + +

Interlude:
G|---------------------------------|---------------------------------|
D|-------------9-9-9~--------------|-------------9/11\9~-------------|
A|---------------------------------|---------------------------------|
E|-0~------------------------------|-0~------------------------------|
  1 + + + 2 + + + 3 + + + 4 + + +  1 + + + 2 + + + 3 + + + 4 + + +

G|---------------------------------|---------------------------------|
D|-------------9-9-9~--------------|-------------9/11\9~-------------|
A|---------------------------------|---------------------------------|
E|-0~------------------------------|-0~---------------------------7\-|
  1 + + + 2 + + + 3 + + + 4 + + +  1 + + + 2 + + + 3 + + + 4 + + +


Verse 2: "If you could hear me now ..."
G|---------------------------------|---------------------------------|
D|---------------------------------|---------------------------------|
A|---------------------------------|------------/4---2~----------2---|
E|-0~------.---0-0-0~------2---4---|-5~------------------------------|
  1 + + + 2 + + + 3 + + + 4 + + +  1 + + + 2 + + + 3 + + + 4 + + +

G|---------------------------------|---------------------------------|
D|-2~------------------------------|---------------------------------|
A|---------------------------------|------------/4---2~----------2---|
E|-------------0-0-0~------2---4---|-5~------------------------------|
  1 + + + 2 + + + 3 + + + 4 + + +  1 + + + 2 + + + 3 + + + 4 + + +

G|---------------------------------|---------------------------------|
D|-2~------------------------------|---------------------------------|
A|---------------------------------|------------/4---2~----------2---|
E|-------------0-0-0~------2---4---|-5~------------------------------|
  1 + + + 2 + + + 3 + + + 4 + + +  1 + + + 2 + + + 3 + + + 4 + + +

G|------------/9----------------------------------|
D|----------------------9--11-9-------------------|
A|----------------------------------9--11-9--7----|
E|-0~---------------------------------------------|
  1 + + + 2 + + + 3 + + + 4 + + +


Chorus 2: "I've been too long in the wind..."
G|---------------------------------|---------------------------------|
D|---------------------------------|---------------------------------|
A|---------------------------------|---------------------------------|
E|-5~----------5---7~----------7-7-|-0~----------0-2-5~----------5---|
  1 + + + 2 + + + 3 + + + 4 + + +  1 + + + 2 + + + 3 + + + 4 + + +

G|---------------------------------|-------------9----------------------------------|
D|---------------------------------|----------------------9h11p9--------------------|
A|-----------------2~----------2---|----------------------------------9--11p9--7----|
E|-2~----------2-------------------|-0~---------------------------------------------|
  1 + + + 2 + + + 3 + + + 4 + + +  1 + + + 2 + + + 3 + + + 4 + + +

G|---------------------------------|---------------------------------|
D|---------------------------------|---------------------------------|
A|---------------------------------|---------------------------------|
E|-5~----------5---7~----------7---|-0~----------0-2-5~--------------|
  1 + + + 2 + + + 3 + + + 4 + + +  1 + + + 2 + + + 3 + + + 4 + + +

G|---------------------------------|
D|---------------------------------|
A|-----------------2~--------------|
E|-2~------------------------------|
  1 + + + 2 + + + 3 + + + 4 + + +


Outro: "I can almost ..."
G|---------------------------------|---------------------------------|
D|---------------------------------|---------------------------------|
A|---------------------------------|---------------------------------|
E|-0~------------0-0---0---2---4---|-5~--------------7~--------------|
  1 + + + 2 + + + 3 + + + 4 + + +  1 + + + 2 + + + 3 + + + 4 + + +

G|---------------------------------|---------------------------------|
D|-------------9-9-9~--------------|-------------9/11\9~-------------|
A|---------------------------------|---------------------------------|
E|-0~------------------------------|-0~------------------------------|
  1 + + + 2 + + + 3 + + + 4 + + +  1 + + + 2 + + + 3 + + + 4 + + +

G|---------------------------------|---------------------------------|
D|-------------9-9-9~--------------|-------------9/11\9~-------------|
A|---------------------------------|---------------------------------|
E|-0~------------------------------|-0~------------------------------|
  1 + + + 2 + + + 3 + + + 4 + + +  1 + + + 2 + + + 3 + + + 4 + + +

G|---------------------------------|---------------------------------|
D|---------------------------------|---------------------------------|
A|----------------/4---2-----------|---------------------------------|
E|-0~---------------------/4---2---|-0~------------------------------|
  1 + + + 2 + + + 3 + + + 4 + + +  1 + + + 2 + + + 3 + + + 4 + + +

***********************************

| ~ Let ring
| / Slide up
| \ Slide down
| . End note
| h Hammer-on
| p Pull-off

***********************************

Almost there ...

Sign in to get your own page with links to favourite songs and more. You are just one click away...

Login with Facebook Login with Google