Log in

One click and you are in

Login with Facebook Login with Google

Why sign up and log in

Guitar Tabs Explorer
Elvis Presley tabs for Little less conversation

Little Less Conversation tab by Elvis Presley

Elvis Presley tabs for Little less conversation

Guitar tabs

little less conversation - elvis presley


main riff
E---------------------0h2--0h1-
B--------7/8----------0h1--0h1-
G--------5/6-------------------
D-----------------0------------
A-0---0------------------------
E------------------------------
  A chord diagramA augmentedA little more bite .....
E----------------------0---
B--2---3---3---3---2---0---
G--2---0---2---0---2---1---
D--2---2---0---0---2---2---
A--0---3---0---2---0---2---
E--------------------------


Come on baby I'm tired of talking..........=20
E---------------------------------------
B--2------------------------------------
G--2-----------------4---2--------------
D--2-------------0-2-------5---0---2-5--
A--0------0---3-------------------------
E---------------------------------------

Come on come on.......
E--------------------------0---
B--2-------3-------3-------0---
G--2-------0-------2-------1---
D--2-------2-------0-------2---
A--0-------3-------0-------2---
E------------------------------

Almost there ...

Sign in to get your own page with links to favourite songs and more. You are just one click away...

Login with Facebook Login with Google