Log in

One click and you are in

Login with Facebook Login with Google

Why sign up and log in

Guitar Tabs Explorer
Elvis Presley bass tabs for Kentucky rain

Bass tabs

Tuning: Standard (E A D G)


Intro:
G|--------------------------|--------------------------|
D|-3~-----------------------|-3~-----------------------|
A|--------------------------|--------------------------|
E|--------------------------|--------------------------|
  1 + + + 2 + + + 3 + + +  1 + + + 2 + + + 3 + + +
G|--------------------------|--------------------------|
D|--------------------------|--------------------------|
A|-3~-----------------------|-3~-----------------------|
E|--------------------------|--------------------------|
  1 + + + 2 + + + 3 + + +  1 + + + 2 + + + 3 + + +

G|--------------------------|--------------------------|---------------------------------|
D|-3~-----------------------|-3~-----------------------|---------------------------------|
A|--------------------------|--------------------------|---------------------------------|
E|--------------------------|--------------------------|-3---3---3---3---3---3---3---3---|
  1 + + + 2 + + + 3 + + +  1 + + + 2 + + + 3 + + +  1 + + + 2 + + + 3 + + + 4 + + +


Verse 1: "Seven lonely days..."
G|---------------------------------|---------------------------------|
D|---------------------3-4-5---2---|---------------------3-4-5---2---|
A|-3~----------------------------5-|-3~----------------------------5-|
E|---------------------------------|---------------------------------|
  1 + + + 2 + + + 3 + + + 4 + + +  1 + + + 2 + + + 3 + + + 4 + + +

G|---------------------------------|---------------------------------|
D|---------------------3-4-5---2---|---------------------3-4-5---5---|
A|-3~----------------------------5-|-3~------------------------------|
E|---------------------------------|---------------------------------|
  1 + + + 2 + + + 3 + + + 4 + + +  1 + + + 2 + + + 3 + + + 4 + + +

G|---------------------------------|---------------------------------|
D|-3~----------3-4-5---5-----------|---------------------------------|
A|-----------------------------5---|-3-----------2-3-0---0-------0---|
E|---------------------------------|---------------------------------|
  1 + + + 2 + + + 3 + + + 4 + + +  1 + + + 2 + + + 3 + + + 4 + + +

G|---------------------------------|---------------------------------|
D|---------------------------------|---------------------------------|
A|-5~------------------------------|-5~--------------5~----------5---|
E|---------------------------------|---------------------------------|
  1 + + + 2 + + + 3 + + + 4 + + +  1 + + + 2 + + + 3 + + + 4 + + +

G|---------------------------------|---------------------------------|
D|---------------------------------|---------------------------------|
A|---------------------------------|---------------------------------|
E|-3~----------3---3~----------3-3-|-3---3-------3-3-3---3-------3---|
  1 + + + 2 + + + 3 + + + 4 + + +  1 + + + 2 + + + 3 + + + 4 + + +

Verse 2: "So I'm walking in the rain..."
G|---------------------------------|---------------------------------|
D|---------------------3-4-5---2---|---------------------3-4-5---2---|
A|-3~----------------------------5-|-3~----------------------------5-|
E|---------------------------------|---------------------------------|
  1 + + + 2 + + + 3 + + + 4 + + +  1 + + + 2 + + + 3 + + + 4 + + +

G|---------------------------------|---------------------------------|
D|---------------------3-4-5---2---|---------------------5---5---4---|
A|-3~----------------------------5-|-3~------------------------------|
E|---------------------------------|---------------------------------|
  1 + + + 2 + + + 3 + + + 4 + + +  1 + + + 2 + + + 3 + + + 4 + + +

G|---------------------------------|---------------------------------|
D|-3~----------3---5~--------------|---------------------------------|
A|---------------------------------|-3~----------2---0~----------0---|
E|-----------------------------3---|---------------------------------|
  1 + + + 2 + + + 3 + + + 4 + + +  1 + + + 2 + + + 3 + + + 4 + + +

G|---------------------------------|---------------------------------|
D|---------------------------------|---------------------------------|
A|-5~----------5-5-5---5-------5-5-|-5---5-------5---5~----------5---|
E|---------------------------------|---------------------------------|
  1 + + + 2 + + + 3 + + + 4 + + +  1 + + + 2 + + + 3 + + + 4 + + +

G|---------------------------------|---------------------------------|
D|---------------------------------|-3~----------------------3---2---|
A|---------------------------------|---------------------------------|
E|-3---3~------3---3---3~------3---|---------------------------------|
  1 + + + 2 + + + 3 + + + 4 + + +  1 + + + 2 + + + 3 + + + 4 + + +


Chorus 1: "Kentucky rain keep pouring down..."
G|---------------------------------|---------------------------------|
D|---------------------------------|---------------------------------|
A|-5---5-------5-0-5.--5-------5---|-3---3-------3-5-2.--2-----------|
E|---------------------------------|-----------------------------5---|
  1 + + + 2 + + + 3 + + + 4 + + +  1 + + + 2 + + + 3 + + + 4 + + +

G|---------------------------------|---------------------------------|
D|---------------------------------|---------------------------------|
A|---------------------------------|---------------------------------|
E|-0---0-------0-0-0---0-0-0---0-0-|-5~------3~------1~------0~------|
  1 + + + 2 + + + 3 + + + 4 + + +  1 + + + 2 + + + 3 + + + 4 + + +

G|---------------------------------|---------------------------------|
D|---------------------------------|---------------------------------|
A|---------------------------------|---------------------------------|
E|-1---1~------1~------------------|---------------------------------|
  1 + + + 2 + + + 3 + + + 4 + + +  1 + + + 2 + + + 3 + + + 4 + + +

G|---------------------------------|---------------------------------|
D|---------------------------------|---------------------------------|
A|---------------------------------|---------------------------------|
E|---------------------------------|---------------------------------|
  1 + + + 2 + + + 3 + + + 4 + + +  1 + + + 2 + + + 3 + + + 4 + + +

G|---------------------------------|---------------------------------|
D|---------------------------------|---------------------------------|
A|---------------------------------|-----------------------------0---|
E|-----------------5-----5-----3---|-1-----------1-1-1---1-----1---1-|
  1 + + + 2 + + + 3 + + + 4 + + +  1 + + + 2 + + + 3 + + + 4 + + +

G|---------------------------------|---------------------------------|
D|---------------------0---5-------|-------------5-0-2.--2-------5-0-|
A|---------------0-2---------------|-3.--3---------------------------|
E|-3.--3~------3-------------------|---------------------------------|
  1 + + + 2 + + + 3 + + + 4 + + +  1 + + + 2 + + + 3 + + + 4 + + +

G|---------------------------------|---------------------------------|
D|-3---3-----5-7---5-0-------------|---------------------------------|
A|---------------------3-------2---|-3~----------3~----------3~------|
E|-------------------------3-------|---------------------------------|
  1 + + + 2 + + + 3 + + + 4 + + +  1 + + + 2 + + + 3 + + + 4 + + +

G|--------------------------|--------------------------|---------------------------------|
D|-3~-----------------------|-3~-----------------------|---------------------------------|
A|--------------------------|--------------------------|-------------------------0---2---|
E|--------------------------|--------------------------|-3---3---3---3---3---3-----------|
  1 + + + 2 + + + 3 + + +  1 + + + 2 + + + 3 + + +  1 + + + 2 + + + 3 + + + 4 + + +


Verse 3: "Showed your photograph..."
G|---------------------------------|---------------------------------|
D|---------------------------------|---------------------------------|
A|-3~------------------3-0-----0-2-|-3~------------------3-0-----0-2-|
E|-------------------------3-------|-------------------------3-------|
  1 + + + 2 + + + 3 + + + 4 + + +  1 + + + 2 + + + 3 + + + 4 + + +

G|---------------------------------|---------------------------------|
D|---------------------------------|---------------------------------|
A|-3~------------------3-0-----0-2-|-3~------------------3-0---------|
E|-------------------------3-------|-------------------------3---3---|
  1 + + + 2 + + + 3 + + + 4 + + +  1 + + + 2 + + + 3 + + + 4 + + +

G|---------------------------------|---------------------------------|
D|---------------------------------|---------------------------------|
A|-------------0-2-------------2---|-3~----------3-2-0~----------0---|
E|-1~--------------3~--------------|---------------------------------|
  1 + + + 2 + + + 3 + + + 4 + + +  1 + + + 2 + + + 3 + + + 4 + + +

G|---------------------------------|---------------------------------|
D|---------------------------------|---------------------------------|
A|-5~----------5-0-5.--5~------5-0-|-5.--5~------5-0-5.--5~------0---|
E|---------------------------------|---------------------------------|
  1 + + + 2 + + + 3 + + + 4 + + +  1 + + + 2 + + + 3 + + + 4 + + +

G|---------------------------------|---------------------------------|
D|---------------------------------|---------------------------------|
A|---------------------------------|---------------------------------|
E|-3.--3~------3---3---3~------3-3-|-3---3-------3---3---3~------3---|
  1 + + + 2 + + + 3 + + + 4 + + +  1 + + + 2 + + + 3 + + + 4 + + +


Verse 4: "Finally got a ride..."
G|---------------------------------|---------------------------------|
D|---------------------3-4-5---2---|---------------------3-4-5---2---|
A|-3~----------------------------5-|-3~----------------------------5-|
E|---------------------------------|---------------------------------|
  1 + + + 2 + + + 3 + + + 4 + + +  1 + + + 2 + + + 3 + + + 4 + + +

G|---------------------------------|---------------------------------|
D|---------------------3-4-5---2---|---------------------3-4-5---5---|
A|-3~----------------------------5-|-3~------------------------------|
E|---------------------------------|---------------------------------|
  1 + + + 2 + + + 3 + + + 4 + + +  1 + + + 2 + + + 3 + + + 4 + + +

G|---------------------------------|---------------------------------|
D|-3---3~------3-4-5---5~----------|---------------------------------|
A|-----------------------------5---|-3---3~------3-2-0---0~------0---|
E|---------------------------------|---------------------------------|
  1 + + + 2 + + + 3 + + + 4 + + +  1 + + + 2 + + + 3 + + + 4 + + +

G|---------------------------------|---------------------------------|
D|---------------------------------|---------------------------------|
A|-5---5~------0-3-5---5-------0-3-|-5---5-------0-3-5---5-------0---|
E|---------------------------------|---------------------------------|
  1 + + + 2 + + + 3 + + + 4 + + +  1 + + + 2 + + + 3 + + + 4 + + +

G|---------------------------------|---------------------------------|
D|-5---5---5---5---5---5---5---5---|-3~----------------------3---2---|
A|---------------------------------|---------------------------------|
E|---------------------------------|---------------------------------|
  1 + + + 2 + + + 3 + + + 4 + + +  1 + + + 2 + + + 3 + + + 4 + + +


Chorus 2: "Kentucky rain keep pouring down..."
G|---------------------------------|---------------------------------|
D|---------------------------------|-------------0-2-----------------|
A|-5---5-------0-3-5.--5-------0-5-|-3.--3-----------2---3-2-----0-2-|
E|---------------------------------|-------------------------3-------|
  1 + + + 2 + + + 3 + + + 4 + + +  1 + + + 2 + + + 3 + + + 4 + + +

G|---------------------------------|---------------------------------|
D|---------------------------------|---------------------------------|
A|---------------------------------|---------------------------------|
E|-0---0-------0-0-0---0---0---3---|-5~------3~------1~------0~------|
  1 + + + 2 + + + 3 + + + 4 + + +  1 + + + 2 + + + 3 + + + 4 + + +

G|---------------------------------|---------------------------------|
D|---------------------------------|---------------------------------|
A|---------------------------------|---------------------------------|
E|-1---1~------1~------------------|---------------------------------|
  1 + + + 2 + + + 3 + + + 4 + + +  1 + + + 2 + + + 3 + + + 4 + + +

G|---------------------------------|---------------------------------|
D|---------------------------------|---------------------------------|
A|---------------------------------|---------------------------------|
E|---------------------------------|---------------------------------|
  1 + + + 2 + + + 3 + + + 4 + + +  1 + + + 2 + + + 3 + + + 4 + + +

G|---------------------------------|---------------------------------|
D|---------------------------------|---------------------------------|
A|---------------------------------|---------------------------------|
E|-----------------5-----5-----3---|-1-----------1-1-1---1-3-5---5-5-|
  1 + + + 2 + + + 3 + + + 4 + + +  1 + + + 2 + + + 3 + + + 4 + + +

G|---------------------------------|---------------------------------|
D|---------------------------------|-------------5-0-2.--2-------5-0-|
A|-------------------------5---2---|-3.--3---------------------------|
E|-3~--------------3---3-----------|---------------------------------|
  1 + + + 2 + + + 3 + + + 4 + + +  1 + + + 2 + + + 3 + + + 4 + + +

G|---------------------------------|---------------------------------|
D|-3.--3-----5-7---5~--------------|-------------5-0-2---2-------5-0-|
A|-------------------------5---0---|-3.--3---------------------------|
E|---------------------------------|---------------------------------|
  1 + + + 2 + + + 3 + + + 4 + + +  1 + + + 2 + + + 3 + + + 4 + + +

G|---------------------------------|---------------------------------|
D|-3.--3-----5-7---5---------------|-------------5-0-2---2-0-2---5-0-|
A|---------------------5---0---2---|-3.--3---------------------------|
E|---------------------------------|---------------------------------|
  1 + + + 2 + + + 3 + + + 4 + + +  1 + + + 2 + + + 3 + + + 4 + + +

G|-------------2---------2-4---2---|---------------------------------|
D|-3.--3-----5-----5.--5---------5-|-------------5-0-2.--2-0-2---5-0-|
A|---------------------------------|-3.--3---------------------------|
E|---------------------------------|---------------------------------|
  1 + + + 2 + + + 3 + + + 4 + + +  1 + + + 2 + + + 3 + + + 4 + + +

G|---------------------------------|---------------------------------|
D|-3.--3-----5-7---5---------------|-------------5-0-2.--2-0-2---5-0-|
A|-------------------5-2-------2---|-3.--3---------------------------|
E|-------------------------3-------|---------------------------------|
  1 + + + 2 + + + 3 + + + 4 + + +  1 + + + 2 + + + 3 + + + 4 + + +

G|-------------2-------------------|---------------------------------|
D|-3.--3-----------5---------------|-------------5-0-2.--2-0-2---5-0-|
A|-------------------5-2-------2---|-3.--3---------------------------| (Fade out)
E|-------------------------3-------|---------------------------------|
  1 + + + 2 + + + 3 + + + 4 + + +  1 + + + 2 + + + 3 + + + 4 + + +

***********************************

| ~ Let ring
| . Staccato

***********************************

Almost there ...

Sign in to get your own page with links to favourite songs and more. You are just one click away...

Login with Facebook Login with Google