Log in

One click and you are in

Login with Facebook Login with Google

Why sign up and log in

Guitar Tabs Explorer
Elvis Presley bass tabs for Just tell her jim said hello

Just Tell Her Jim Said Hello bass tab by Elvis Presley

Elvis Presley bass tabs for Just tell her jim said hello

Bass tabs

Tuning: Standard (E A D G)

Difficulty: Novice
Intro:
G|-----------------------------|
D|----5----2--5------5----2--5-|
A|-3-----3--------3-----3------|
E|-----------------------------|


Verse 1:
G|-------------------------------------------------------------------|
D|----5----2-3--5----5---3-5----5--3-2----5-----0-2-3-----5----4-2---|
A|-3-----3--------5----5-----5---------3-----3---------3-----5-----2-|
E|-------------------------------------------------------------------|

G|------------------------------------|
D|-2----2--3-----5----5-----5----2--5-|
A|----2-------3-----5----3-----3------|
E|------------------------------------|


Verse 2:
G|-------------------------------------------------------------------|
D|----5----2-3--5----5---3-5----5--3-2----5-----0-2-3-----5----4-2---|
A|-3-----3--------5----5-----5---------3-----3---------3-----5-----2-|
E|-------------------------------------------------------------------|

G|------------------------------------|
D|-2----2--3-----5----5-----5----2--5-|
A|----2-------3-----5----3-----3------|
E|------------------------------------|

Middle 8:
G|------------------------------------------------------------------|
D|---4--7-----------------------------4--7------------------5-3-2---|
A|-5---------5--8----4--7----4--7---5--------5--8---7---7---------5-|
E|--------6--------5-------5---------------6----------7-------------|


Verse 2:
G|-------------------------------------------------------------------|
D|----5----2-3--5----5---3-5----5--3-2----5-----0-2-3-----5----4-2---|
A|-3-----3--------5----5-----5---------3-----3---------3-----5-----2-|
E|-------------------------------------------------------------------|

G|-----------------------------------|
D|-2----2--3-----5----5-----5----0-2-|
A|----2-------3-----5----3-----3-----|
E|-----------------------------------|


Outro:    (Repeat To Fade/End)
G|---------------------------|
D|-3------5---------5----0-2-|
A|----3------5---3-----3-----|
E|---------------------------|

Almost there ...

Sign in to get your own page with links to favourite songs and more. You are just one click away...

Login with Facebook Login with Google