Log in

One click and you are in

Login with Facebook Login with Google

Why sign up and log in

Guitar Tabs Explorer
Elvis Presley bass tabs for Jailhouse rock

Bass tabs

Elvis Presley - Jailhouse Rock
4/4 - swing feel - 167 BPM
Half-step down tuning (Eb Ab Db Gb)


Intro

Gb|-----------------|-----------------|-----------------|
Db|-----------------|-----------------|-----------------|
Ab|-----------6-----|-7---------------|-L---------6-----|
Eb|-----------------|-----------------|-----------------|
  1 + 2 + 3 + 4 +  1 + 2 + 3 + 4 +  1 + 2 + 3 + 4 +

Gb|-----------------|-----------------|
Db|-----------------|-----------------|
Ab|-7---------------|-L---------6-----|
Eb|-----------------|-----------------|
  1 + 2 + 3 + 4 +  1 + 2 + 3 + 4 +


Verse 1

Gb|-----------------|-----------------|-----------------|-----------------|
Db|-----------------|-----------------|-----------------|-----------------|
Ab|-7---------------|-L---------6-----|-7---------------|-L---------6-----|
Eb|-----------------|-----------------|-----------------|-----------------|
  1 + 2 + 3 + 4 +  1 + 2 + 3 + 4 +  1 + 2 + 3 + 4 +  1 + 2 + 3 + 4 +

Gb|-----------------|-----------------|-----------------|-----------------|
Db|-----------------|-----------------|-----------------|-----------------|
Ab|-7---------------|-L---------6-----|-7---------------|---------2---4---|
Eb|-----------------|-----------------|-----------------|-----4-----------|
  1 + 2 + 3 + 4 +  1 + 2 + 3 + 4 +  1 + 2 + 3 + 4 +  1 + 2 + 3 + 4 +


Chorus

Gb|-----------------|-----------------|-----------------|-----------------|
Db|---------2-2-4-2-|---------2-2-4-2-|-----------------|-----------------|
Ab|-0-0-4-4---------|-0-0-4-4---------|---------2-2-4-2-|---------2-2-4-2-|
Eb|-----------------|-----------------|-0-0-4-4---------|-0-0-4-4---------|
  1 + 2 + 3 + 4 +  1 + 2 + 3 + 4 +  1 + 2 + 3 + 4 +  1 + 2 + 3 + 4 +

Gb|-----------------|-----------------|-----------------|-----------------|
Db|---------4-4-6-4-|---------2-2-4-2-|-----------------|-----------------|
Ab|-2-2-6-6---------|-0-0-4-4---------|---------2-2-4-2-|---------2---6---|
Eb|-----------------|-----------------|-0-0-4-4---------|-----4-----------|
  1 + 2 + 3 + 4 +  1 + 2 + 3 + 4 +  1 + 2 + 3 + 4 +  1 + 2 + 3 + 4 +


Verse 2

Gb|-----------------|-----------------|-----------------|-----------------|
Db|-----------------|-----------------|-----------------|-----------------|
Ab|-7---------------|-L---------6-----|-7---------------|-L---------6-----|
Eb|-----------------|-----------------|-----------------|-----------------|
  1 + 2 + 3 + 4 +  1 + 2 + 3 + 4 +  1 + 2 + 3 + 4 +  1 + 2 + 3 + 4 +

Gb|-----------------|-----------------|-----------------|-----------------|
Db|-----------------|-----------------|-----------------|-----------------|
Ab|-7---------------|-L---------6-----|-7---------------|---------2---4---|
Eb|-----------------|-----------------|-----------------|-----4-----------|
  1 + 2 + 3 + 4 +  1 + 2 + 3 + 4 +  1 + 2 + 3 + 4 +  1 + 2 + 3 + 4 +


Chorus

Gb|-----------------|-----------------|-----------------|-----------------|
Db|---------2-2-4-2-|---------2-2-4-2-|-----------------|-----------------|
Ab|-0-0-4-4---------|-0-0-4-4---------|---------2-2-4-2-|---------2-2-4-2-|
Eb|-----------------|-----------------|-0-0-4-4---------|-0-0-4-4---------|
  1 + 2 + 3 + 4 +  1 + 2 + 3 + 4 +  1 + 2 + 3 + 4 +  1 + 2 + 3 + 4 +

Gb|-----------------|-----------------|-----------------|-----------------|
Db|---------4-4-6-4-|---------2-2-4-2-|-----------------|-----------------|
Ab|-2-2-6-6---------|-0-0-4-4---------|---------2-2-4-2-|---------2-6-----|
Eb|-----------------|-----------------|-0-0-4-4---------|-0-0-4-4---------|
  1 + 2 + 3 + 4 +  1 + 2 + 3 + 4 +  1 + 2 + 3 + 4 +  1 + 2 + 3 + 4 +


Verse 3

Gb|-----------------|-----------------|-----------------|-----------------|
Db|-----------------|-----------------|-----------------|-----------------|
Ab|-7---------------|-L---------6-----|-7---------------|-L---------6-----|
Eb|-----------------|-----------------|-----------------|-----------------|
  1 + 2 + 3 + 4 +  1 + 2 + 3 + 4 +  1 + 2 + 3 + 4 +  1 + 2 + 3 + 4 +

Gb|-----------------|-----------------|-----------------|-----------------|
Db|-----------------|-----------------|-----------------|-----------------|
Ab|-7---------------|-L---------6-----|-7---------------|---------2---4---|
Eb|-----------------|-----------------|-----------------|-----4-----------|
  1 + 2 + 3 + 4 +  1 + 2 + 3 + 4 +  1 + 2 + 3 + 4 +  1 + 2 + 3 + 4 +


Chorus

Gb|-----------------|-----------------|-----------------|-----------------|
Db|---------2-2-4-2-|---------2-2-4-2-|-----------------|-----------------|
Ab|-0-0-4-4---------|-0-0-4-4---------|---------2-2-4-2-|---------2-2-4-2-|
Eb|-----------------|-----------------|-0-0-4-4---------|-0-0-4-4---------|
  1 + 2 + 3 + 4 +  1 + 2 + 3 + 4 +  1 + 2 + 3 + 4 +  1 + 2 + 3 + 4 +

Gb|-----------------|-----------------|-----------------|-----------------|
Db|---------4-4-6-4-|---------2-2-4-2-|-----------------|-----------------|
Ab|-2-2-6-6---------|-0-0-4-4---------|---------2-2-4-2-|---------2---4---|
Eb|-----------------|-----------------|-0-0-4-4---------|-----4-----------|
  1 + 2 + 3 + 4 +  1 + 2 + 3 + 4 +  1 + 2 + 3 + 4 +  1 + 2 + 3 + 4 +


Solo

Gb|-----------------|-----------------|-----------------|-----------------|
Db|---------2---4---|-5---4---2-------|-----------------|-----------------|
Ab|-0---4-----------|-------------4---|---------2---4---|-5---4---2-------|
Eb|-----------------|-----------------|-0---4-----------|-------------4---|
  1 + 2 + 3 + 4 +  1 + 2 + 3 + 4 +  1 + 2 + 3 + 4 +  1 + 2 + 3 + 4 +

Gb|-----------------|-----------------|-----------------|-----------------|
Db|---------4---6---|---------2---4---|-----------------|-----------------|
Ab|-2---6-----------|-0---4-----------|---------2---4---|-5---4---2-------|
Eb|-----------------|-----------------|-0---4-----------|-------------4---|
  1 + 2 + 3 + 4 +  1 + 2 + 3 + 4 +  1 + 2 + 3 + 4 +  1 + 2 + 3 + 4 +


Verse 4

Gb|-----------------|-----------------|-----------------|-----------------|
Db|-----------------|-----------------|-----------------|-----------------|
Ab|-7---------------|-L---------6-----|-7---------------|-L---------6-----|
Eb|-----------------|-----------------|-----------------|-----------------|
  1 + 2 + 3 + 4 +  1 + 2 + 3 + 4 +  1 + 2 + 3 + 4 +  1 + 2 + 3 + 4 +

Gb|-----------------|-----------------|-----------------|-----------------|
Db|-----------------|-----------------|-----------------|-----------------|
Ab|-7---------------|-L---------6-----|-7---------------|---------2---6---|
Eb|-----------------|-----------------|-----------------|-----4-----------|
  1 + 2 + 3 + 4 +  1 + 2 + 3 + 4 +  1 + 2 + 3 + 4 +  1 + 2 + 3 + 4 +


Chorus

Gb|-----------------|-----------------|-----------------|-----------------|
Db|---------2-2-4-2-|---------2-2-4-2-|-----------------|-----------------|
Ab|-0-0-4-4---------|-0-0-4-4---------|---------2-2-4-2-|---------2-2-4-2-|
Eb|-----------------|-----------------|-0-0-4-4---------|-0-0-4-4---------|
  1 + 2 + 3 + 4 +  1 + 2 + 3 + 4 +  1 + 2 + 3 + 4 +  1 + 2 + 3 + 4 +

Gb|-----------------|-----------------|-----------------|-----------------|
Db|---------4-4-6-4-|---------2-2-4-2-|-----------------|-----------------|
Ab|-2-2-6-6---------|-0-0-4-4---------|---------2-2-4-2-|---------2-6-----|
Eb|-----------------|-----------------|-0-0-4-4---------|-0-0-4-4---------|
  1 + 2 + 3 + 4 +  1 + 2 + 3 + 4 +  1 + 2 + 3 + 4 +  1 + 2 + 3 + 4 +


Verse 5

Gb|-----------------|-----------------|-----------------|-----------------|
Db|-----------------|-----------------|-----------------|-----------------|
Ab|-7---------------|-L---------6-----|-7---------------|-L---------6-----|
Eb|-----------------|-----------------|-----------------|-----------------|
  1 + 2 + 3 + 4 +  1 + 2 + 3 + 4 +  1 + 2 + 3 + 4 +  1 + 2 + 3 + 4 +

Gb|-----------------|-----------------|-----------------|-----------------|
Db|-----------------|-----------------|-----------------|-----------------|
Ab|-7---------------|-L---------6-----|-7---------------|---------2---4---|
Eb|-----------------|-----------------|-----------------|-----4-----------|
  1 + 2 + 3 + 4 +  1 + 2 + 3 + 4 +  1 + 2 + 3 + 4 +  1 + 2 + 3 + 4 +


Chorus

Gb|-----------------|-----------------|-----------------|-----------------|
Db|---------2-2-4-2-|---------2-2-4-2-|-----------------|-----------------|
Ab|-0-0-4-4---------|-0-0-4-4---------|---------2-2-4-2-|---------2-2-4-2-|
Eb|-----------------|-----------------|-0-0-4-4---------|-0-0-4-4---------|
  1 + 2 + 3 + 4 +  1 + 2 + 3 + 4 +  1 + 2 + 3 + 4 +  1 + 2 + 3 + 4 +

Gb|-----------------|-----------------|-----------------|-----------------|
Db|---------4-4-6-4-|---------2-2-4-2-|-----------------|-----------------|
Ab|-2-2-6-6---------|-0-0-4-4---------|---------2-2-4-2-|---------2-2-4-2-|
Eb|-----------------|-----------------|-0-0-4-4---------|-0-0-4-4---------|
  1 + 2 + 3 + 4 +  1 + 2 + 3 + 4 +  1 + 2 + 3 + 4 +  1 + 2 + 3 + 4 +


Outro

Gb|-----------------|-----------------|-----------------|-----------------|
Db|-----------------|-----------------|-----------------|-----------------|
Ab|---------2-2-4-2-|---------2-2-4-2-|---------2-2-4-2-|---------2-2-4-2-|
Eb|-0-0-4-4---------|-0-0-4-4---------|-0-0-4-4---------|-0-0-4-4---------|
  1 + 2 + 3 + 4 +  1 + 2 + 3 + 4 +  1 + 2 + 3 + 4 +  1 + 2 + 3 + 4 +

Gb|-----------------|-----------------|-----------------|-----------------|
Db|-----------------|-----------------|-----------------|-----------------|
Ab|---------2-2-4-2-|---------2-2-4-2-|---------2-2-4-2-|---------2-2-4-2-|
Eb|-0-0-4-4---------|-0-0-4-4---------|-0-0-4-4---------|-0-0-4-4---------|
  1 + 2 + 3 + 4 +  1 + 2 + 3 + 4 +  1 + 2 + 3 + 4 +  1 + 2 + 3 + 4 +

Gb|-----------------|-----------------|
Db|-----------------|-----------------|
Ab|---------2-2-4-2-|---------2-2-4-2-|
Eb|-0-0-4-4---------|-0-0-4-4---------|
  1 + 2 + 3 + 4 +  1 + 2 + 3 + 4 +


************************************

| L  Tied note

************************************

Almost there ...

Sign in to get your own page with links to favourite songs and more. You are just one click away...

Login with Facebook Login with Google