Log in

One click and you are in

Login with Facebook Login with Google

Why sign up and log in

Guitar Tabs Explorer
Elvis Presley bass tabs for Bridge over troubled water

Bridge Over Troubled Water bass tab - Elvis Presley

Elvis Presley bass tabs for Bridge over troubled water

Bass tabs

elvis_presley/bridge_over_troubled_water.btab

as played by Jerry Scheff
Basstab by Jan Bjorklund, Finland;
jani_bjorklund@yahoo.se
You are welcome to request for basstabs!
Bienvenidos a pedirme transcripciones para el bajo!

TablEdited by Jan Bjorklund for Florian

Tuning : E A D G 	Time Signature: 4/4

Tempo 88

 |    |    |    |    |    |    |    |
|--------------------------------|12--------------------------12--|
|---------The bass kicks in------|--------------------------------|
|-------at the 32'nd mesure------|--------------------------------|
|--------------------------------|--------------------------------|

 |    |    |    |    |    |    |    |
|----------------------------12--|--------------------------------|
|10------------------------------|10--------------------------10--|
|--------------------------------|--------------------------------|
|--------------------------------|--------------------------------|

 |    |    |    |    |    |    |    |
|--------------------------------|--------------------------------|
|10------------------------------|--------------------------------|
|----------------------------5---|3-----------3---------------3---|
|--------------------------------|--------------------------------|

 |    |    |    |    |    |    |    |
|--------------------------------|--------------------------------|
|--------------------------------|--------------------------------|
|3-----------3---------------3---|3-----------3---------------3---|
|--------------------------------|--------------------------------|

 |    |    |    |    |    |    |    |
|----------------3---------------|--------------------------------|
|3-----------3-----------3-------|--------------------------------|
|--------------------------------|3-----------3---------------3---|
|--------------------------------|--------------------------------|

 |    |    |    |    |    |    |    |
|--------------------------------|--------------------------------|
|----------------3h5-----5-------|--------------------------------|
|5-----------5-------------------|3---------------3-----------3---|
|--------------------------------|--------------------------------|

 |    |    |    |    |    |    |    |
|--------------------------------|--------------------------------|
|--------------------------------|5-------------5-------------3h5-|
|3-----------3---2-------0-------|----------------5---5-----------|
|--------------------------------|--------------------------------|

 |    |    |    |    |    |    |    |
|--------------------------------|--------------------------------|
|5---5---------5-5---5-------5---|--------------------------------|
|--------------------------------|3-------------3-2---2-------2---|
|--------------------------------|--------------------------------|

 |    |    |    |    |    |    |    |
|--------------------------------|--------------------------------|
|------------------------2-------|3-------------3-4---4-------3-4-|
|1-------3-------5---------------|--------------------------------|
|--------------------------------|--------------------------------|

 |    |    |    |    |    |    |    |
|------------3-4-5---3-0---------|--------------------------------|
|5-----------------------2-------|3-----------3---3-------4-------|
|--------------------------------|--------------------------------|
|--------------------------------|--------------------------------|

 |    |    |    |    |    |    |    |
|--------------------------------|--------------------------------|
|5-----------5---7---7-----------|3-----------3---2-----------2---|
|--------------------------------|--------------------------------|
|--------------------------------|--------------------------------|

 |    |    |    |    |    |    |    |
|--------------------------------|--------------------------------|
|7---------------5-------5-------|3-----------3---3-------4-------|
|--------------------------------|--------------------------------|
|--------------------------------|--------------------------------|

 |    |    |    |    |    |    |    |
|--------------------------------|--------------------------------|
|5-----------5-5-7---------------|3-----------3---2---------------|
|--------------------------------|--------------------------------|
|--------------------------------|--------------------------------|

 |    |    |    |    |    |    |    |
|--------------------------------|--------------------------------|
|7-----------6-----------5-------|--------------------------------|
|--------------------------------|5-----------4-----------3-------|
|--------------------------------|--------------------------------|

 |    |    |    |    |    |    |    |
|--------------------------------|----------------------------9---|
|5-------------5-5---5-------5---|--------7---10--7---9---10------|
|--------------------------------|8---10--------------------------|
|--------------------------------|--------------------------------|

 |    |    |    |    |    |    |    |
|--------------------------------|--------------------------------|
|--------7---10--------------10--|10----------10------------------|
|8---10----------7---8---10------|--------------------------------|
|--------------------------------|--------------------------------|

 |    |    |    |    |    |    |    |
|--------------------------------|1012----------------------------|
|10----------10------------------|----10------10------------------|
|--------------------------------|--------------------------------|
|--------------------------------|--------------------------------|

 |    |    |    |    |    |    |    |
|--------------------------------|--------------------------------|
|10----------10------------------|--------------------------------|
|------------------------10/-----|3-----------3---------------3---|
|--------------------------------|--------------------------------|

 |    |    |    |    |    |    |    |
|--------------------------------|--------------------------------|
|--------------------------------|--------------------------------|
|3-----------3---------------3---|3-----------3---------------3---|
|--------------------------------|--------------------------------|

 |    |    |    |    |    |    |    |
|--------------2-3---2-----------|--------------------------------|
|3-------3---5---------5-3---3---|--------------------------------|
|--------------------------------|3-----------3-3-3---3-------3---|
|--------------------------------|--------------------------------|

 |    |    |    |    |    |    |    |
|--------------------------------|----------------5---5-------5---|
|--------------------5-------5---|--------------------------------|
|5-----------5-5-5---------------|3-------------3-----------------|
|--------------------------------|--------------------------------|

 |    |    |    |    |    |    |    |
|--------------------------------|--------------------------------|
|--------------------------------|--------------------------------|
|3-------3---3---2-------0-------|5-------5-----5-----------------|
|--------------------------------|----------------3---3-------3---|

 |    |    |    |    |    |    |    |
|--------------------------------|5-------------5-4---4-----------|
|5---5-------3-------------------|--------------------------------|
|--------------5-------------5---|--------------------------------|
|----------------3---3-----------|--------------------------------|

 |    |    |    |    |    |    |    |
|3-------------------------------|--------------------------------|
|------------------------2-------|3---3---------3-4---4-------4---|
|--------3-------5---------------|------------5-------------------|
|--------------------------------|--------------------------------|

 |    |    |    |    |    |    |    |
|------------3-4-5---3-----------|--------------------------------|
|5---5-----------------5-2-------|3-----------3-3-3-------4-------|
|--------------------------------|--------------------------------|
|--------------------------------|--------------------------------|

 |    |    |    |    |    |    |    |
|--------------------------------|--------------------------------|
|5---5-------5-5-7---7-------5---|3---------------2---2-------2---|
|--------------------------------|--------------------------------|
|--------------------------------|--------------------------------|

 |    |    |    |    |    |    |    |
|--------------------------------|--------------------------------|
|7---------------5-------5-------|3-----------3---3-------4-------|
|--------------------------------|--------------------------------|
|--------------------------------|--------------------------------|

 |    |    |    |    |    |    |    |
|--------------------------------|--------------------------------|
|5-----------5---7---7-------5/--|3---------------2---------------|
|--------------------------------|--------------------------------|
|--------------------------------|--------------------------------|

 |    |    |    |    |    |    |    |
|2-----------1-----------0-------|--------------------------------|
|--------------------------------|--------------------------------|
|--------------------------------|5-----------4-----------3-------|
|--------------------------------|--------------------------------|

 |    |    |    |    |    |    |    |
|--------------------------------|----------------------------9---|
|5-------------5-5---5-------5---|--------7---10--7---9---10------|
|--------------------------------|8---10--------------------------|
|--------------------------------|--------------------------------|

 |    |    |    |    |    |    |    |
|--------------------------------|--------------------------------|
|--------7---10--------------10--|10------------------------------|
|8---10----------7---8---10------|--------------------------------|
|--------------------------------|--------------------------------|

Almost there ...

Sign in to get your own page with links to favourite songs and more. You are just one click away...

Login with Facebook Login with Google