Log in

One click and you are in

Login with Facebook Login with Google

Why sign up and log in

Guitar Tabs Explorer
Elvis Presley bass tabs for Blue christmas (Ver. 2)

Bass tabs with lyrics

  • Difficulty: Beginner
Key: E

🎄 Verse 1:
                   D                 D
      I'll  have  a     blue               Christmas          with-
G|---------------------------------|---------------------------------|---------------------------------|
D|---------------------------------|---------------------------------|-2-------------------------------|
A|---------------------------------|-----------------2-------4-------|---------4-------2---------------|
E|---------------------------------|-0-------4-----------------------|-------------------------4-------|
  A                 A                 A

 out you                  I'll  be   so    blue            just
G|-------------------------1-------|-4-------1-----------------------|-------------------------1-------|
D|---------1-------4---------------|-----------------4-------1-------|---------1-------4---------------|
A|-2-------------------------------|---------------------------------|-2-------------------------------|
E|---------------------------------|---------------------------------|---------------------------------|
  A                 D                 D
  thinking      a-      bout you                       De- co- ra-
G|-4-------1-----------------------|---------------------------------|---------------------------------|
D|-----------------4-------1-------|---------------------------------|-2-------------------------------|
A|---------------------------------|-----------------2-------4-------|---------4-------2---------------|
E|---------------------------------|-0-------4-----------------------|-------------------------4-------|
  D                 D                 G
          tions  of red            on a     green       Christmas
G|---------------------------------|---------------------------------|---------------------------------|
D|---------------------------------|-2-------------------------------|-----------------2-------4-------|
A|-----------------2-------4-------|---------4-------2---------------|-0-------4-----------------------|
E|-0-------4-----------------------|-------------------------4-------|---------------------------------|
  G                 E                 E
  tree                   Won't      be the  same dear
if
G|-2-------------------------------|---------------------------------|---------------------------------|
D|---------4-------2---------------|-------------------------1-------|-4-------1-----------------------|
A|-------------------------4-------|---------1-------4---------------|-----------------4-------1-------|
E|---------------------------------|-2-------------------------------|---------------------------------|
  A                 A
  you're not   here  with   me   And   when  those
G|---------------------------------|---------------------------------|
D|---------------------------------|---------------------------------|
A|-2-------2-------2-------2-------|-2-------------------------------|
E|---------------------------------|---------------------------------|

🎄 Verse 2:
  blue               snowflakes         start fallin'
G|---------------------------------|---------------------------------|-------------------------1-------|
D|---------------------------------|-2-------------------------------|---------1-------4---------------|
A|-----------------2-------4-------|---------4-------2---------------|-2-------------------------------|
E|-0-------4-----------------------|-------------------------4-------|---------------------------------|

      That's when  those   blue            me-    mories     start
G|-4-------1-----------------------|-------------------------1-------|-4-------1-----------------------|
D|-----------------4-------1-------|---------1-------4---------------|-----------------4-------1-------|
A|---------------------------------|-2-------------------------------|---------------------------------|
E|---------------------------------|---------------------------------|---------------------------------|

  cal-lin'                       You'll be  doin'          all right
G|---------------------------------|---------------------------------|---------------------------------|
D|---------------------------------|-2-------------------------------|---------------------------------|
A|-----------------2-------4-------|---------4-------2---------------|------------------2------4-------|
E|-0-------4-----------------------|-------------------------4-------|-0-------4-----------------------|

            with your Christ-         mas of white             But
G|---------------------------------|---------------------------------|---------------------------------|
D|-2-------------------------------|-----------------2-------4-------|-------------------------1-------|
A|---------4-------2---------------|-0-------4-----------------------|---------1-------4---------------|
E|-------------------------4-------|---------------------------------|-2-------------------------------|

  I'll        have a blue
blue
blue
blue   Christmas
G|-------------------------1-------|-4-------1-----------------------|---------------------------------|
D|---------1-------4---------------|-----------------4-------1-------|-2---------------2-------2-------|
A|-2-------------------------------|---------------------------------|---------------------------------|
E|---------------------------------|---------------------------------|---------------------------------|

🎄 Instrumental:
  N.C.
G|---------------------------------|---------------------------------|---------------------------------|
D|---------------------------------|---------------------------------|-2-------------------------------|
A|---------------------------------|-----------------2-------4-------|---------4-------2---------------|
E|---------------------------------|-0-------4-----------------------|-------------------------4-------|

G|-------------------------1-------|-4-------1-----------------------|-------------------------1-------|
D|---------1-------4---------------|-----------------4-------1-------|---------1-------4---------------|
A|-2-------------------------------|---------------------------------|-2-------------------------------|
E|---------------------------------|---------------------------------|---------------------------------|

                                              De- co- ra-
G|-4-------1-----------------------|---------------------------------|---------------------------------|
D|-----------------4-------1-------|---------------------------------|-2-------------------------------|
A|---------------------------------|-----------------2-------4-------|---------4-------2---------------|
E|---------------------------------|-0-------4-----------------------|-------------------------4-------|

          tions  of red            on a     green        Christmas
G|---------------------------------|---------------------------------|---------------------------------|
D|---------------------------------|-2-------------------------------|-----------------2-------4-------|
A|-----------------2-------4-------|---------4-------2---------------|-0-------4-----------------------|
E|-0-------4-----------------------|-------------------------4-------|---------------------------------|

  tree                   Won't      be the  same dear
if
G|-2-------------------------------|---------------------------------|---------------------------------|
D|---------4-------2---------------|-------------------------1-------|-4-------1-----------------------|
A|-------------------------4-------|---------1-------4---------------|-----------------4-------1-------|
E|---------------------------------|-2-------------------------------|---------------------------------|

  you're not   here  with   me   And   when  those
G|---------------------------------|---------------------------------|
D|---------------------------------|---------------------------------|
A|-2-------2-------2-------2-------|-2-------------------------------|
E|---------------------------------|---------------------------------|

🎄 Verse 3:
  blue               snow-  flakes     start   fall-  in'
G|---------------------------------|---------------------------------|-------------------------1-------|
D|---------------------------------|-2-------------------------------|---------1-------4---------------|
A|-----------------2-------4-------|---------4-------2---------------|-2-------------------------------|
E|-0-------4-----------------------|-------------------------4-------|---------------------------------|

  That's when  those       blue               me-     mories   start
G|-4-------1-----------------------|-------------------------1-------|-4-------1-----------------------|
D|-----------------4-------1-------|---------1-------4---------------|-----------------4-------1-------|
A|---------------------------------|-2-------------------------------|---------------------------------|
E|---------------------------------|---------------------------------|---------------------------------|

  call-  in'                    You'll be    doin'          all
G|---------------------------------|---------------------------------|---------------------------------|
D|---------------------------------|-2-------------------------------|---------------------------------|
A|-----------------2-------4-------|---------4-------2---------------|------------------2------4-------|
E|-0-------4-----------------------|-------------------------4-------|-0-------4-----------------------|

  right         with your Christ-         mas of  white            But
G|---------------------------------|---------------------------------|---------------------------------|
D|-2-------------------------------|-----------------2-------4-------|-------------------------1-------|
A|---------4-------2---------------|-0-------4-----------------------|---------1-------4---------------|
E|-------------------------4-------|---------------------------------|-2-------------------------------|

  I'll          have a   blue
blue, blue, blue Christ- mas
G|-------------------------1-------|-4-------1-----------------------|---------------------------------|
D|---------1-------4---------------|-----------------4-------1-------|---------------------------------|
A|-2-------------------------------|---------------------------------|-----------------2-------4-------|
E|---------------------------------|---------------------------------|-0-------4-----------------------|

G|---------------------------------|
D|-2-------------------------------|
A|---------4-------2-------4-------|
E|---------------------------------|

🎁☃❄🎄🎅🔔🛷🎁☃❄🎄🎅🔔🛷🎁☃❄🎄🎅🔔🛷🎁☃❄🎄🎅🔔🛷
presley elvis blue christmas (Ver. 2) music video
ⓘ This is the 2nd version of bass guitar tab for 'Blue Christmas' by Elvis Presley, Elvis Aaron Presley, a male rock & roll artist from Memphis, Tennessee, USA. Elvis Presley was born in 1935. He passed away in 1977. Elvis Presley was known for his excitable rock/pop music.

Other versions of Blue Christmas

Other alternative guitar chords and tabs for the song Blue christmas by Elvis Presley
Blue christmasBass tabs

Almost there ...

Sign in to get your own page with links to favourite songs and more. You are just one click away...

Login with Facebook Login with Google