Log in

One click and you are in

Login with Facebook Login with Google

Why sign up and log in

Guitar Tabs Explorer
Elvis Presley bass tabs for Always on my mind

Bass tabs

Tuning: Standard (E A D G)


Tuning : E A D G    Time Signature: 4/4

  1 - 2 - 3 - 4 | 1 - 2 - 3 - 4 | 1 - 2 - 3 - 4 | 1 - 2 - 3 - 4 | 1 - 2 - 3 - 4 | 1 - 2 - 3 - 4 |
G|---------------|---------------|---------------|---------------|---------------|---------------|
D|---------------|---------------|---------------|---------------|---------------|---------------|
A|---------------|---------------|---------------|---------------|---------------|---------------|
E|---------------|---------------|---------------|---------------|---------------|---------------|

  1 - 2 - 3 - 4 | 1 - 2 - 3 - 4 | 1 - 2 - 3 - 4 | 1 - 2 - 3 - 4 | 1 - 2 - 3 - 4 | 1 - 2 - 3 - 4 |
G|---------------|---------------|---------------|---------------|---------------|---------------|
D|---------------|---------------|---------------|---------------|---------------|---------------|
A|---------------|---------------|---7-----5-----|-3-------3--5--|---------------|---------------|
E|-3-------------|-3-2-----------|-2-------------|---------------|-3-------------|-3-2-----------|

  1 - 2 - 3 - 4 | 1 - 2 - 3 - 4 | 1 - 2 - 3 - 4 | 1 - 2 - 3 - 4 | 1 - 2 - 3 - 4 | 1 - 2 - 3 - 4 |
G|---------------|---------------|---------------|---------------|---------------|---------------|
D|---------------|-----2---5/9---|-10------10-10-|-9-------9-9---|-10------10-9--|-9-7---7-5-----|
A|---7-----5-----|-3-------------|---------------|---------------|---------------|-----------7-5-|
E|-2-------------|---------------|---------------|---------------|---------------|---------------|

  1 - 2 - 3 - 4 | 1 - 2 - 3 - 4 | 1 - 2 - 3 - 4 | 1 - 2 - 3 - 4 | 1 - 2 - 3 - 4 | 1 - 2 - 3 - 4 |
G|---------------|---------------|---------------|---------------|---------------|---------------|
D|---------------|---------------|---------------|---------------|---------------|---------------|
A|-5-5-----------|-----0-0-2-2-3-|-----3-5---5-10|-----3---5---10|-----10-10-----|-9-------9-9---|
E|-----0-0-2-2-3-|-3-3-----------|---------------|---------------|---------------|---------------|

  1 - 2 - 3 - 4 | 1 - 2 - 3 - 4 | 1 - 2 - 3 - 4 | 1 - 2 - 3 - 4 | 1 - 2 - 3 - 4 | 1 - 2 - 3 - 4 |
G|---------------|---------------|---------------|---------------|---------------|---------------|
D|---------------|---------------|---------------|---------------|---------------|----------2-5/9|
A|-7-----7-5-----|-5---3-----3-5-|---------------|---------------|-7-----7-5-----|-5----5-3------|
E|---------------|---------------|-3-------3-3---|-2-------2-2---|---------------|---------------|

  1 - 2 - 3 - 4 | 1 - 2 - 3 - 4 | 1 - 2 - 3 - 4 | 1 - 2 - 3 - 4 | 1 - 2 - 3 - 4 | 1 - 2 - 3 - 4 |
G|---------------|---------------|---------------|---------------|---------------|---------------|
D|-10------10-10-|-9-------9-9---|-10------10-9--|-9-7---7-5-----|---------------|---------------|
A|---------------|---------------|---------------|-----------7-5-|-5-5-----------|-----0-0-2-2-3-|
E|---------------|---------------|---------------|---------------|-----0-0-2-2-3-|-3-3-----------|

  1 - 2 - 3 - 4 | 1 - 2 - 3 - 4 | 1 - 2 - 3 - 4 | 1 - 2 - 3 - 4 | 1 - 2 - 3 - 4 | 1 - 2 - 3 - 4 |
G|---------------|---------------|---------------|---------------|---------------|---------------|
D|---------------|---------------|---------------|---------------|---------------|---------------|
A|-----3-5---5-10|-----3---5---10|-10--10--9-9---|--7-7---7--5-5-|---3-3--3-2-2--|----2-3-5-3-5-7|
E|---------------|---------------|---10--10------|10-----7-7-----|-5-------------|3-5------------|

  1 - 2 - 3 - 4 | 1 - 2 - 3 - 4 | 1 - 2 - 3 - 4 | 1 - 2 - 3 - 4 | 1 - 2 - 3 - 4 | 1 - 2 - 3 - 4 |
G|---------------|---------------|---------------|---------------|---------------|---------------|
D|---------------|---------------|---------------|---------------|---------------|---------------|
A|10-10--10--9-9-|---7-7---7-5-5-|---3-3--3-2-2-2|----2-3-5-3-5-7|10-10--10--1010|-9-9--9-5-7-5-7|
E|-----10--10----|10------7-7----|-5-------------|3-5------------|-----10--10----|---------------|

  1 - 2 - 3 - 4 | 1 - 2 - 3 - 4 | 1 - 2 - 3 - 4 | 1 - 2 - 3 - 4 | 1 - 2 - 3 - 4 | 1 - 2 - 3 - 4 |
G|---------------|---------------|---------------|---------------|---------------|---------------|
D|---------------|---------------|2/10-----10-10-|-9-------9---9-|-10------10-9--|-9-7---7-5-----|
A|-5-5---5---3-3-|-3-2-2---2-3-5-|---------------|---------------|---------------|-----------7-5-|
E|-----5---5-----|-------5-------|---------------|---------------|---------------|---------------|

  1 - 2 - 3 - 4 | 1 - 2 - 3 - 4 | 1 - 2 - 3 - 4 | 1 - 2 - 3 - 4 | 1 - 2 - 3 - 4 | 1 - 2 - 3 - 4 |
G|---------------|---------------|---------------|---------------|---------------|---------------|
D|---------------|---------------|---------------|---------------|---------------|---------------|
A|-5-5-----------|-----0-0-2-2-3-|-3-3-3--5-5-5-5|10-10--10---9-9|--7-7---7--5-5-|---3-3--3-2-2--|
E|-----0-0-2-2-3-|-3-3-----------|---------------|-----10--10----|10-----7-7-----|-5-------------|

  1 - 2 - 3 - 4 | 1 - 2 - 3 - 4 | 1 - 2 - 3 - 4 | 1 - 2 - 3 - 4 | 1 - 2 - 3 - 4 | 1 - 2 - 3 - 4 |
G|---------------|---------------|---------------|---------------|---------------|---------------|
D|---------------|---------------|---------------|---------------|*--------------|---------------|
A|-3---5---------|---------------|---------------|---------------|*-10-----10--10|-9-------9---9-|
E|---------------|---------------|-3-------------|---------------|---------------|---------------|

  1 - 2 - 3 - 4 | 1 - 2 - 3 - 4 |
G|---------------|---------------|
D|---------------|--------------*|
A|-7-----7-5-----|-5--3----3-5--*| Repeat to fade
E|---------------|---------------|

Almost there ...

Sign in to get your own page with links to favourite songs and more. You are just one click away...

Login with Facebook Login with Google