Log in

One click and you are in

Login with Facebook Login with Google

Why sign up and log in

Guitar Tabs Explorer
Natalie Prass bass tabs for Short court style

Bass tabs

Main Riff

G|---------------------------------------------------------------------------------------|
D|-----3-1-3\53---5-----------65------5------------3-1-3\53---5--------------------------|
A|------------------------------86------------------------------------6-6--66--66--66----|
E|1-------------3---33---11--------863---33---1-------------3---33---6-6-----------------|


Chorus

G|---------------------------------------------------------------------------|
D|---------------------------------------------------------------------------|
A|--------------6--6-5-3--5-6-3/---------------6--6-5-3--5-6-3/--------------|
E|4--4-3-1--1-3------------------1--1-3-1--1-3-------------------------------|




Bridge

G|---------------------------------------------------------------------------|
D|---------------------------------------------------------------------------|
A|---------------------------------------------------------------------------|
E|1--1-1-111-1-1--1-1-111-1-1--1-1-111-1-1-1-3-4-----------------------------|

G|---------------------------------------------------------------------------|
D|---------------------------------------------------------------------------|
A|----------------6-6~-------------------------------------------------------|
E|1--1-1-111-1-1-6-6---------------------------------------------------------|


{Chorus for rest of song


************************************


| /   Slide up
| \   Slide down
| ~   Vibrato


************************************

Almost there ...

Sign in to get your own page with links to favourite songs and more. You are just one click away...

Login with Facebook Login with Google