Log in

One click and you are in

Login with Facebook Login with Google

Why sign up and log in

Guitar Tabs Explorer
Bondan Prakoso bass tabs for Unity

Bass tabs

Tuning: Standard (E A D G)

Bondan F2B - Unity (Bass Tab)
Song title   : Unity
Artist       : Bondan F2B
Tabbed by    : rg shop
Fig1
G|-------------------------------------------------------------------------------------|
D|------------3------------------------------------------------------------------------|
A|--3h5p3------------------------------------------------------------------------------|
E|--------5p3----1-1-------------------------------------------------------------------|

Fig2
G|-------------------------------------------------------------------------------------|
D|---------------3---------------------------------------------------------------------|
A|--3h5p3----------3-3h5---------------------------------------------------------------|
E|--------5p3-1------------------------------------------------------------------------|

Fig3
G|-------------------------------------------------------------------------------------|
D|-------------------------------------------------------------------------------------|
A|--3h5-5-5-5-5-5-5---3h5-5-5-5-5-5---0------------------------------------------------|
E|----------------------------------3---1----------------------------------------------|

Fig4
G|-------------------------------------------------------------------------------------|
D|-------------------------------------------------------------------------------------|
A|--5--5--5-5--5--5-8-7-5---------------------------------------------3--3--3-3--3--3--|
E|------------------------8-6--6--6-6--6--6-8-6-5-3-1--1--1-1--1--1h3------------------|

Fig5
G|----------0---0---0---0---0---0------------------------------------------------------|
D|-----------------------------------------0h2h5p0h2h5p0h2h5p0h2h5p0h2h5p0h2h5---------|
A|-------------------------------------------------------------------------------------|
E|--3-3---3---3---3---3---3---3------3-3-----------------------------------------------|

G|--------12---9---7-------------------------------------------------------------------|
D|-------------------------------------------------------------------------------------|
A|--------10---7---5-------------------------------------------------------------------|
E|--3-3----------------3-3---14-13-12-11-10-9-8-7-6-5-4-3\-----------------------------|

Fig6
G|----------------------------3h5-3----------------------------------------------------|
D|------------------------3h5-------5-3------------------------------------------------|
A|--3h5-5-5-5-5-5-5---3h5---------------5-3--------------------------------------------|
E|-------------------------------------------------------------------------------------|

Fig7
G|-------------------------------------------------------------------------------------|
D|-----7------7---7--6---6---6-7------7-----7---7-6---6---6-5-3------------------------|
A|--5-------5---5------------------5------5---5----------------------------------------|
E|-------------------------------------------------------------------------------------|

G|-------------------------------------------------------------------------------------|
D|--0------3----------3-5h6p5-3---------------0h3p0------------3-5-3-----3-----5-5b7---|
A|-----3-5----5-5-3-5-----------5------5--3-5-------3----5-3-5-------5-3---5-----------|
E|---------------------------------4---------------------------------------------------|

G|-----------------------------3-5p3------------------------------------------------5-3---------------------|
D|----------3p0--5-5b7---5-3-5-------5-3--5-5b7-5-5b7-5-5b7-5-5b7-5-5b7-5-5b7-5-5b7-----5-3---3-------------|
A|--5-3-3-5---------------------------------------------------------------------------------5---5--3--------|
E|---------------------------------------------------------------------------------------------------5-3-1--|


************************************

| h  Hammer-on
| p  Pull-off
| \  Slide down
| b  Bend

************************************

Almost there ...

Sign in to get your own page with links to favourite songs and more. You are just one click away...

Login with Facebook Login with Google