Log in

One click and you are in

Login with Facebook Login with Google

Why sign up and log in

Guitar Tabs Explorer
Bondan Prakoso guitar tabs for Sos

Guitar tabs

Tuning: Standard (E A D G B E)

Song title   : S.O.S
Artist       : Bondan & F2B
Tabbed by    : rg shop
Fig1
e|---------------------------------------------------------------------------|
B|---------------------------------------------------------------------------|
G|------------------5-----4-------------5---4h5-----7-----5-----4------------|
D|------7---5h7-----------------5--------------------------------------------|
A|--0-0---0-----0-0---0-0---0-0-----3-3---3-----3-3---3-3---3-3--------------|
E|---------------------------------------------------------------------------|

e|---------------------------------------------------------------------------|
B|---------------------------------------------------------------------------|
G|------4---2h4-----5-----4-----0-------0---0h2-----4-----5-----7------------|
D|---------------------------------------------------------------------------|
A|--2-2---2-----2-2---2-2---2-2----------------------------------------------|
E|----------------------------------3-3---3-----3-3---3-3---3-3--------------|

Fig2
e|---------------------------------------------------------------------------|
B|---------------------------------------------------------------------------|
G|--5-5-5-2-2-2-------5-5-5-2-2-2-------5-5-5-------------5-5-5--------------|
D|--------------2---2-------------2---2-------5-5-5-2---2-------5-5-5-2---2--|
A|---------------------------------------------------------------------------|
E|---------------------------------------------------------------------------|

e|---------------------------------------------------------------------------|
B|---------------------------------------------------------------------------|
G|--4-4-4-------------4-4-4-------------4-4-4-------------4-4-4--------------|
D|--------5-5-5-0---0-------5-5-5-0---0-------5-5-5-2---2-------5-5-5-2---2--|
A|---------------------------------------------------------------------------|
E|---------------------------------------------------------------------------|

Fig3
e|-------------------------------------------------7-7-----------------------|
B|-----------------------------------------------------8-8---------8-8-------|
G|--------------------5-4---------4------------------------7-7---------7-7---|
D|--7--7-7--7-7---5-7------------------------------------------9-9-----------|
A|-------------------------5-3--2-----2-2-3-2-5------------------------------|
E|---------------------------------------------------------------------------|

e|------------7-7---------7-7---------7-7------------------------------------|
B|------8-8-------8-8---------8-8---------8-8--------------------------------|
G|--------------------9-9---------9-9----------------------------------------|
D|--9-9----------------------------------------------------------------------|
A|---------------------------------------------------------------------------|
E|---------------------------------------------------------------------------|

e|---------------------------------------------------------------------------|
B|---------------------------------------------------------------------------|
G|---------------------------------------------------------------------------|
D|--0h5h9p0h5h9-0h5h9p0h5h9-0h5h9p0h5h9-0h5h9p0h5h9--0h5h10p0h5h10-----------|
A|---------------------------------------------------------------------------|
E|---------------------------------------------------------------------------|

e|---------------------------------------------------------------------------|
B|---------------------------------------------------------------------------|
G|---------------------------------------------0h4h7p0h4h7-0h4h7p0h4h7-------|
D|--0h5h10p0h5h10-0h5h10p0h5h10-0h5h10p0h5h10--------------------------------|
A|---------------------------------------------------------------------------|
E|---------------------------------------------------------------------------|

e|---------------------------------------------------------------------------|
B|---------------------------------------------------------------------------|
G|--0h4h7p0h4h7-0h4h7p0h4h7--0h4h9-0h4h10-0h4h9-0h4h10-0h4h9-0h4h7-----------|
D|---------------------------------------------------------------------------|
A|---------------------------------------------------------------------------|
E|---------------------------------------------------------------------------|

e|---------------------------------------------------------------------------|
B|---------------------------------------------------------------------------|
G|---------------------------------------------------------------------------|
D|--0h5h10-0h5h9-0h5h7-------------------------------------------------------|
A|---------------------------------------------------------------------------|
E|---------------------------------------------------------------------------|


************************************

| h  Hammer-on
| p  Pull-off

************************************

Almost there ...

Sign in to get your own page with links to favourite songs and more. You are just one click away...

Login with Facebook Login with Google