Log in

One click and you are in

Login with Facebook Login with Google

Why sign up and log in

Guitar Tabs Explorer
Bondan Prakoso bass tabs for Bunga

Bass tabs

Start


       Q  Q  Q  E E   E E E  E E E E
G||-------|-----------------------|------------------------|
D||-------|-----------------------|------------------------|
A||-------|--7----L----L----L-----|--7--9-----10-----9--7--|
E||-------|--------------------8--|------------------------|
 Q  Q  Q  Q    Q  E E E E E   Q  Q  Q  Q
----------------------|----------------------|----------------------|
----------------------|----------------------|----------------------|
--3----L----L----L----|--L----L--3--2-----0--|----------------------|
----------------------|----------------------|--3----L----L----L----|


 Q  Q  E E E   Q  Q  Q  Q    Q  Q  Q
---------------------|----------------------|-----------------|
---------------------|----------------------|-----------------|
------------------0--|--2----L----L----L----|--L----L----L----|
--L----L----3--------|----------------------|-----------------|


 Q  Q  Q  E E   E E E  E E E E   Q  Q  Q  Q
-----------------------|------------------------|----------------------|
-----------------------|------------------------|----------------------|
--7----L----L----L-----|--7--9-----10-----9--7--|--3----L----L----L----|
--------------------8--|------------------------|----------------------|


 E E E E Q  Q    Q  Q  Q  Q    E E E E Q  E
------------------------|----------------------|----------------------|
------------------------|----------------------|----------------------|
--3--3-----3--2----0----|----------------------|--------------0----3--|
------------------------|--3----L----L----L----|--3--3-----3----------|

 Q  Q  Q  Q    E Q  E Q  E   Q  Q  Q  E E
----------------------|---------------------|-----------------------|
----------------------|---------------------|-----------------------|
--2----L----L----L----|--2--2----2----------|--7----L----L----L-----|
----------------------|-------------3----2--|--------------------8--|


 E E E  E E E E   Q  Q  Q  Q    E E E E E  E  Q
------------------------|----------------------|---------------------------|
------------------------|----------------------|---------------------------|
--7--9-----10-----9--7--|--3----L----L----L----|--3--3-----3--2--(0)--2----|
------------------------|----------------------|---------------------------|


 Q  Q  Q  Q    E E E E Q  E   Q  Q  Q  Q
----------------------|----------------------|----------------------|
----------------------|----------------------|----------------------|
----------------------|--------------0----3--|--2----L----L----L----|
--3----L----L----L----|--3--3-----3----------|----------------------|


 E Q  S S Q  Q    Q  Q  Q  E E   E E E  E E E E
------------------------|-----------------------|------------------------|
------------------------|-----------------------|------------------------|
--2--2----2---5----5----|--7----L----L----L-----|--7--9-----10-----9--7--|
------------------------|--------------------8--|------------------------|


 Q  Q  Q  Q    E E E E E  E  E   Q  Q  Q  Q
----------------------|-------------------------|----------------------|
----------------------|-------------------------|----------------------|
--3----L----L----L----|--3--3-----3--2--(0)--2--|----------------------|
----------------------|-------------------------|--3----L----L----L----|


 E E E E E  E  E   E E E E E E E E   E E E E E  E E
-------------------------|--------------------------|------------------------|
-------------------------|--------------------------|------------------------|
--------------3-------3--|--2--L--L-

Almost there ...

Sign in to get your own page with links to favourite songs and more. You are just one click away...

Login with Facebook Login with Google