Log in

One click and you are in

Login with Facebook Login with Google

Why sign up and log in

Guitar Tabs Explorer
Bondan Prakoso bass tabs for Bumi ke langit

Bass tabs

Fig1
G|---------------------------------------------------------------------------|
D|--2--0---------------------------------------------------------------------|
A|--------0--2---2--2-2-2--4-5-----------------5-4-2-0-2---------------------|
E|------------------------------3---3--3--3-3--------------------------------|

Fig2
G|---------------------------------------------------------------------------|
D|--------------------------------------------------0h2----------------------|
A|-----------2---2--2-2-2--4-5------------------0h2-----2--------------------|
E|------------------------------3---3--3--3-3--------------------------------|

Fig3
G|---------------------------------------------------------------------------|
D|---------------------------------------------------------------------------|
A|-----------2---2--2-2-2--4-5------------------9-7-5-4-5---2----------------|
E|------------------------------3---3--3--3-3--------------------------------|

Fariasi bass nya dituker2 aja antara 3 diatas...

Yang dibawah pas solo gitar...

Fig4
G|---------------------------------------------------------------------------|
D|---------------------------------------------------------------------------|
A|---7-7-7-7-7--7-7-5-5-5-5-5--5-5-7-7-7-7-7--7-7-5-5-5-5-5--5-5-------------|
E|---------------------------------------------------------------------------|

G|---------------------------------------------------------------------------|
D|---------------------------------------------------------------------------|
A|---------------------------------------------------------------------------|
E|---7-7-7-7-7--7-7-5-5-5-5-5--5-5-7-7-7-7-7--7-7-5-5-5-5-5--5-5-------------|

Fig5
G|---------------------------------------------------------------------------|
D|---------------------------------------------------------------------------|
A|--7-7-7-7-7--7-7-9-9-9-9-10-10-10-10--7-7-7-7-7--7-7-9-9-9-9-10-10-10-10---|
E|---------------------------------------------------------------------------|

G|---------------------------------------------------------------------------|
D|---------------------------------------------------------------------------|
A|---------------------------------------------------------------------------|
E|--7-7-7-7-7--7-7-9-9-9-9-10-10-10-10--7-7-7-7-7--7-7-9-9-9-9-10-10-10-10---|

Almost there ...

Sign in to get your own page with links to favourite songs and more. You are just one click away...

Login with Facebook Login with Google