Log in

One click and you are in

Login with Facebook Login with Google

Why sign up and log in

Guitar Tabs Explorer
Powfu guitar tabs for Death bed

Guitar tabs

Tuning: Standard (E A D G B E)


Intro:
        A chord diagramC majorC
e|------0-------------3------3------0--------5------0------------------------|
B|------1---------------------------1----------------------3-----------------|
G|------0---------------------------0----------------------------------------|
D|------2---------------------------2----------------------------------------|
A|------3---------------------------3----------------------------------------|
E|---------------------------------------------------------------------------|
       A chord diagramE minorEm
e|------0-------------3------3-----------------------3-----0-----------------|
B|------0---------------------------3--------1-------------------3-----1-----|
G|------0---------------------------0----------------------------------------|
D|------2---------------------------2----------------------------------------|
A|------2---------------------------2----------------------------------------|
E|---------------------------------------------------------------------------|
        A chord diagramFF
e|----------------------------------0----------------3-----0-----------------|
B|------3-------1-----1------3---------------1-------------------3-----1-----|
G|------2--------------------------------------------------------------------|
D|------3---------------------------3----------------------------------------|
A|---------------------------------------------------------------------------|
E|---------------------------------------------------------------------------|

        A chord diagramF minorFm
e|--------------------3-----3-------0----------------------------------------|
B|------3-------1----------------------------3-------1-----------------------|
G|------1--------------------------------------------------------------------|
D|------3---------------------------3----------------------------------------|
A|---------------------------------------------------------------------------|
E|---------------------------------------------------------------------------|

Other versions of Death Bed

Death bedChords
Death bed (feat beabadoobee)Chords
Death bed ukuleleChords
Death bed coffee for your headTabs

↓ Add and view comments below ↓

What do you think about this song and these tabs?

Add your comments, questions, rant or a thumbs up below.

Almost there ...

Sign in to get your own page with links to favourite songs and more. You are just one click away...

Login with Facebook Login with Google