Log in

One click and you are in

Login with Facebook Login with Google

Why sign up and log in

Guitar Tabs Explorer
Power Trip bass tabs for Executioners tax

Bass tabs

Tuning: Standard (E A D G)


Intro:

G|---------------------------------------------------------------------------------------------------|
D|---------------------------------------------------------------------------------------------------|
A|---------------------------------------------------------------------------------------------------|
E|0-0-0-0-0-0-0-0-0--0-0-0-0-0-0--0-0-0-0-0-0-0-0-0-0-0-0--0--3-0-0-0--0---0-0-0-0-0-0-0-0-0-3-0-0-0-|

G|----------------------------------------------------------------| x2
D|----------------------------------------------------------------|
A|----------------------------------------------------------------|
E|0-0-0-0-0-0-2-3-2-6-0-0-0-0-0-2-3-2-6-0-0-0-0-0-0-2-3-2-6-0-2-3-|

G|--------------------------------------------|
D|--------------------------------------------|
A|--------------------------------------------|
E|0-2-3-2-6-0-5-0-4-0-3-0-3-4-3-2-3-2-1-0-2-3-|

G|----------------------------------------------------------------|
D|----------------------------------------------------------------|
A|----------------------------------------------------------------|
E|0-0-0-0-0-0-2-3-2-6-0-0-0-0-0-2-3-2-6-0-0-0-0-0-0-2-3-2-6-0-2-3-|


Verse 1:

G|---------------------------------------------------------------------------------------------------|
D|---------------------------------------------------------------------------------------------------|
A|---------------------------------------------------------------------------------------------------|
E|0-0-0-0-0-0-0-0-0--0-0-0-0-0-0--0-0-0-0-0-0-0-0-0-0-0-0--0--3-0-0-0--0---0-0-0-0-0-0-0-0-0-3-0-0-0-|


Chorus:

G|----------------------------------------------------------------| x2
D|----------------------------------------------------------------|
A|----------------------------------------------------------------|
E|0-0-0-0-0-0-2-3-2-6-0-0-0-0-0-2-3-2-6-0-0-0-0-0-0-2-3-2-6-0-2-3-|

G|--------------------------------------------|
D|--------------------------------------------|
A|--------------------------------------------|
E|0-2-3-2-6-0-5-0-4-0-3-0-3-4-3-2-3-2-1-0-2-3-|

G|----------------------------------------------------------------|
D|----------------------------------------------------------------|
A|----------------------------------------------------------------|
E|0-0-0-0-0-0-2-3-2-6-0-0-0-0-0-2-3-2-6-0-0-0-0-0-0-2-3-2-6-0-2-3-|

Post Chorus: x4

G|----------------------------------------------------|
D|----------------------------------------------------|
A|----------------------------------------------------|
E|0-0-0-1-1-1-2-2-2-3-3-3-6-0-0-0-0-1-0-0-0-3-0-0-0-1-|


Verse 2:

G|---------------------------------------------------------------------------------------------------|
D|---------------------------------------------------------------------------------------------------|
A|---------------------------------------------------------------------------------------------------|
E|0-0-0-0-0-0-0-0-0--0-0-0-0-0-0--0-0-0-0-0-0-0-0-0-0-0-0--0--3-0-0-0--0---0-0-0-0-0-0-0-0-0-3-0-0-0-|


Chorus:

G|--------------------------------------------------|
D|--------------------------------------------------|
A|--------------------------------------------------|
E|--------------------------------------------0-2-3-|

G|----------------------------------------------------------------|
D|----------------------------------------------------------------|
A|----------------------------------------------------------------|
E|0-0-0-0-0-0-2-3-2-6-0-0-0-0-0-2-3-2-6-0-0-0-0-0-0-2-3-2-6-0-2-3-|

G|--------------------------------------------|
D|--------------------------------------------|
A|--------------------------------------------|
E|0-2-3-2-6-0-5-0-4-0-3-0-3-4-3-2-3-2-1-0-2-3-|



Outro:

G|-------|
D|-------|
A|-------|
E|-0-2-3-|

Almost there ...

Sign in to get your own page with links to favourite songs and more. You are just one click away...

Login with Facebook Login with Google