Log in

One click and you are in

Login with Facebook Login with Google

Why sign up and log in

Guitar Tabs Explorer
Power Trip bass tabs for Crossbreaker

Bass tabs with lyrics

Tuning: Standard (E A D G)


Intro:

G|-------------------------------------------------------------------------|
D|-------------------------------------------------------------------------|
A|-------------------------------------------------------------------------|
E|12-0-0-0-0-0-0-0-0-0-0-0-0-0-0-0-0-0-0-0-0-0-0-0-0-0-0-0-0-0-0-0-0-12-12-|

G|--------------------|
D|--------------------|
A|--------------------|
E|3-2-0-1-0-6-0-7-8-3-|

G|-----------------------------|
D|-----------------------------|
A|-----------------------1-1-1-|
E|3-2-0-1-0-0-0-0-0-0-0-0------|


Verse 1:

G|--------------------------------------------------------------------------------------------|
D|--------------------------------------------------------------------------------------------|
A|--------------------------------------------------------------------------------------1-1-1-|
E|12-0-0-0-0-0-0-0-0-0-0-0-0-0-0-0-0-0-0-0-0-0-0-0-0--12-12-00-0-0-0-0-0-0-0-0-0-0-0-0-0------|


Chorus:

G|---------------------------------------------|
D|---------------------------------------------|
A|---------------------------------------------|
E|3-2-0-1-0-6-0-7-8-3-0-6-7-2-1-0--0-0-0-0-0-0-|

G|-------|
D|-------|
A|-1-1-1-|
E|-------|


Verse 2:

G|--------------------------------------------------------------------------------------------|
D|--------------------------------------------------------------------------------------------|
A|--------------------------------------------------------------------------------------1-1-1-|
E|12-0-0-0-0-0-0-0-0-0-0-0-0-0-0-0-0-0-0-0-0-0-0-0-0--12-12-00-0-0-0-0-0-0-0-0-0-0-0-0-0------|


Chorus:

G|---------------------------------------------|
D|---------------------------------------------|
A|---------------------------------------------|
E|3-2-0-1-0-6-0-7-8-3-0-6-7-2-1-0--0-0-0-0-0-0-|

G|-------|
D|-------|
A|-1-1-1-|
E|-------|


Bridge:

G|------------------------------------------------------|
D|------------------------------------------------------|
A|------------------------------------------------------|
E|-------------1--------------7----------6------------0-|

G|-----------------------------------------------|
D|-----------------------------------------------|
A|-----------------------------------------------|
E|0-0-0--0-0-0--0-0-0--0-0-0-0-0-0-0-0-0-0-0-0-1-|

G|--------|
D|--------|
A|--------|
E|3-2-0-1-|


Outro:

G|-------|
D|-------|
A|-------|
E|-7-8-3-|

G|----------------------|
D|----------------------|
A|----------------------|
E|3-2-0-1-0-6-0-7-8-3-0-|

G|--------|
D|--------|
A|--------|
E|3-2-0-1-|


************************************
The Crossbreaker, the pain reliever

I'll rip the nails from your veins

To the believers who shout deceiver: Dare you to spit in my face

Offered you a finer truth, a realm beyond your shallow pain

The universe becomes a pulpit lose yourself in infinity space

Crossbreaker

Are you caught up in the storm? Or do you watch the rain pour?

Time is nothing for the Crossbreaker, the pain reliever

I'll put you straight in your grave

True power cast in stone

The ether shifts to any form

Crossbreaker

Are you caught up in the storm?

A warrior reborn; with the knowledge to guide him home

Become the center of the void and let go

Crossbreaker

Almost there ...

Sign in to get your own page with links to favourite songs and more. You are just one click away...

Login with Facebook Login with Google