Log in

One click and you are in

Login with Facebook Login with Google

Why sign up and log in

Guitar Tabs Explorer
Powderfinger tabs for Thrilloilogy

Guitar tabs

Thrilloilogy
Tabbed by Ben harper its all his work not the innocent criminals and
not some magazine or nothing

Any comments or suggestions to Wahooti_custaro@yahoo.com

KEY

7h9             - hammer
7p9             - pull off
11b12           - 11 bend to 12
11b12b11        - 11 bend to 12 and back to 11
/               - slide up
\               - slide down
<12>            - harmonic
|---|           - a bar
 ~              - vibrato
 X              - block


VERSE
GUITAR 1 (0:00)
e--7----------7----------5---------3--3-2----
b----5--3-5-----5--3-5-----5--3-5------------
G--------------------------------------------
D--------------------------------------------  X5
A--------------------------------------------
E--------------------------------------------

GUITAR 2 (0:09)
e|-0-|-0-|-0-|-3--X-|-------
b|-0-|-0-|-0-|-3--3-|-------
A chord diagramG+G|-X-|-X-|-X-|-0--2-|-------
A chord diagramD MajorD|-2-|-2-|-2-|-0--0-|-------   X4
A chord diagramA augmentedA|-2-|-2-|-2-|-X--X-|-------
A chord diagramE MajorE|-0-|-0-|-0-|-3--2-|-------

PRE CHORUS (0:47)
GUITAR 1
e|-8-|-8-|-7-|-10-|----
b|-5-|-5-|-8-|-7--|----
A chord diagramG+G|---|---|---|----|----
A chord diagramD MajorD|---|---|---|----|---- X2
A chord diagramA augmentedA|---|---|---|----|----
A chord diagramE MajorE|---|---|---|----|----

then
e----------------------------------
b--5-5-5-5-5-5-5-5-5-5-------------
G--5-5-5-5-5-5-5-5-5-5-------------
D--5-5-5-5-5-5-5-5-5-5-------------
A--3-3-3-3-3-3-3-3-3-3-------------
E----------------------------------

GUITAR 2
e|---|---|-3-|---|---
b|-5-|-5-|-3-|-3-|---
A chord diagramG+G|-5-|-5-|-0-|-2-|---
A chord diagramD MajorD|-5-|-5-|-0-|-0-|---  X2
A chord diagramA augmentedA|-3-|-3-|-X-|-X-|---
A chord diagramE MajorE|---|---|-3-|-2-|---

then
e----------------------------------
b--5-5-5-5-5-5-5-5-5-5-------------
G--5-5-5-5-5-5-5-5-5-5-------------
D--5-5-5-5-5-5-5-5-5-5-------------
A--3-3-3-3-3-3-3-3-3-3-------------
E----------------------------------


CHORUS (1:02)
GUITAR 1
repeat all this twice
e-------7---------7---------7---------7---------7---------7---
b--8--8---8--8--8---8--7--7---7--7--7---7--8--8---8--8--8---8-
G--7--7------7--7------4--4------4--4------5--5------5--5-----
D--5--5------5--5------4--4------4--4------5--5------5--5-----
A-------------------------------------------------------------
E-------------------------------------------------------------

GUITAR 2
e|-3-|---|---|---|---
b|-3-|-4-|-5-|-5-|---
A chord diagramG+G|-0-|-4-|-5-|-5-|---
A chord diagramD MajorD|-0-|-4-|-5-|-5-|---  X2
A chord diagramA augmentedA|-2-|-2-|-3-|-3-|---
A chord diagramE MajorE|-3-|---|---|---|---


VERSE AGAIN, EACH GUITAR 4 TIMES


PRE-CHORUS


CHORUS
GUITAR 1 is the same

GUITAR 2
e|-3-|---|---|---|---
b|-3-|-4-|-5-|-5-|---
A chord diagramG+G|-0-|-4-|-5-|-5-|---
A chord diagramD MajorD|-0-|-4-|-5-|-5-|---  X2
A chord diagramA augmentedA|-2-|-2-|-3-|-3-|---
A chord diagramE MajorE|-3-|---|---|---|---

then (2:52)
e--7--
b--8--
G--5--
D--5--
A-----
E-----

WEIRD INSTRUMENTAL BIT (3:02)
GUITAR 1
e-------------------------------------------------
b-------------------------11--11--10--10--10--10--
G--9--9-----9--9----9--9--------------------------
D--5--5-----7--7----9--9--------------------------  X2
A--7--7-----9--9----7--7--------------------------
E-------------------------------------------------

e-------------------------------------------------
b-------------------------------------------------
G--9-9-9-9--9-9-9-9--9-9-9-9--9-9--9-9-------------
D--5-5-5-5--7-7-7-7--9-9-9-9--9-9--9-9------------
A--7-7-7-7--9-9-9-9--7-7-7-7--7-7--7-7--------------
E--------------------------------------------------

e--------------------------------------
b------------------------------10-10---
G--9--9---9--9---9--9---9--9---9--9----
D--5--5---7--7---9--9---9--9---9--9----  X3
A--7--7---9--9---7--7---7--7---7--7----
E--------------------------------------

GUITAR 2 (3:23)
e-------------------------------------------------------
b-------------------------------------------------------
G-------------------------------------------------------
D-------------------------------------------------------
A--7-7--7-7-7--7-7--7-7-7--9-9--9-9-9--9-9--9-9-9-------
E--0-0--0-0-0--0-0--0-0-0--0-0--0-0-0--0-0--0-0-0-------

e---------------------------------------------------------------------
b---------------------------------------------------------------------
G---------------------------------------------------------------------
D--------------------------------------------------------------------
A--10-10--10-10-10--10-10--10-10-10--12-12--12-12-12--12-12--12-12-12-
e--0--0---0--0--0---0--0---0--0--0---0--0---0--0--0---0--0---0--0--0--

do this part 3 times
e----------------------------------------------------------------------
b---------------------------------------------------------------14-14--
G---------------------------------------------14-14-14-14-14-14-14-14--
D---------------------------------------------14-14-14-14-14-14-14-14--
A-7-7-X-X-X-9-9-X-X-X-10-10-X-X-X-10-10-X-X-X-12-12-12-12-12-12-12-12--
E-0-0-X-X-X-0-0-X-X-X-0--0--X-X-X-0--0--X-X-X-0--0--0--0--0--0--0--0---

QUIET BIT

GUITAR 1 is the same but on keyboard

GUITAR 2
has a bend in each bar (you'll hear it)
e----------------------------------
b---8b10b8-------------------------
G----------------------------------
D---------------------------------
A-----------------------------------
E-----------------------------------

at (5:25) guitar 2 goes
e-----------------------------------------------------------------
b-8-8-8-8-8-8-8-8-10-10-10-10-10-10-10-10-12-12-12-12-12-12-12-12-
G-----------------9--9--9--9--9--9--9--9--11-11-11-11-11-11-11-11-
D-----------------------------------------------------------------
A-----------------------------------------------------------------
E-----------------------------------------------------------------

then play this 4 times
e-------------------------------------------------------
b-12-12-12-12--10-10-10-10--8--8--8--8---8-8-8-8--------
G-11-11-11-11--11-11-11-11--11-11-11-11--9-9-9-9--------
D-------------------------------------------------------
A-------------------------------------------------------
E-------------------------------------------------------

Other versions of Thrilloilogy

ThrilloilogyChords

Almost there ...

Sign in to get your own page with links to favourite songs and more. You are just one click away...

Login with Facebook Login with Google