Log in

One click and you are in

Login with Facebook Login with Google

Why sign up and log in

Guitar Tabs Explorer
Powderfinger tabs for Capocity

Guitar tabs with lyrics

Capocity - Powderfinger
of the album internationalist
writtern by Bernard Fanning

I reckon this has to be my faviourite track of the album,
then Belter.I think the solo in this rocks and, yes i have
included the solo, but its very approxamate.
Apart from the solo which is not exactly mind boggling the
rest of the song is pretty easy.
also, there is not a terrible ammont of guitar in this song,
most of it is organ pedals but i've sort of made a strum
along in some parts.

capo on first fret, solo can be played with/or without the capo.

chords;
    A chord diagramE MajorE  A chord diagramAsus2Asus2  A chord diagramC majorC  A chord diagramBB
e-|-0----0----0--0----|
B-|-0----0----1--4----|
G-|-1----2----0--4----|
D-|-2----2----2--4----|
A-|-2----0----3--2----|
E-|-0-----------------|


verse; A chord diagramE MajorE & A chord diagramAsus2Asus2


Chorus; (We'll Tell Them Nothing) A chord diagramC majorC & A chord diagramAsus2Asus2
Also This line
A chord diagramC majorC         A chord diagramBB
Ever open up


Verse Again

Chorus Again except there are two more "ever open up" parts

stop then...


solo
well here it is but as i said at the start it's very
approxamate so if
you have corrections e-mail me.....p.s the notes in
brackets are played really softly.....

also, i have cramped in the solo so i don't have
to type out tonnes,
sometimes there is big gaps between notes
which are 1cm apart listen
to the song for a guide.

Thanx to Paul Stipack for bits of the solo

|----------------------------------------------------------|
|---16p14----9h11------------------------------------------|
|-------------------14--12-----10-------10----8-----5------|
|----------------------------------------------------------|
|----------------------------------------------------------|
|----------------------------------------------------------|

|------------------------13--------------------------------|
|---16p14---9h11-----13------13-----(10)---8brbr~~~~~~-----|
|----------------------------------------------------------|
|----------------------------------------------------------|
|----------------------------------------------------------|
|----------------------------------------------------------|

|----------------------------------------------------------|
|---14~--11--13------------------------11---13-------------|
|----------------10----13----10----13------------12---13---|
|----------------------------------------------------------|
|----------------------------------------------------------|
|----------------------------------------------------------|

|----------------------------------------------------------|
|------------------------------11----13--13-13-13--15b~~---|
|-10-----13-----10------13---------------------------------|
|----------------------------------------------------------|
|----------------------------------------------------------|
|----------------------------------------------------------|

|------------------------------------------------|
|------------------------------11-----------16~~-|
|-10-----13-----10------13-----------------------|
|------------------------------------------------|
|------------------------------------------------|
|------------------------------------------------|


straight after that there is this fill
(this is also played under the solo)
       A chord diagramE MajorE                A chord diagramC majorC                  A chord diagramBB
|------------------------------------------------------2---------|
|-------0--------------1-----------------4-----------------4-----|
|----------1--------------0------------4---4-------------4---4---|
|---2---------------2----------------4---------------------------|
|-2---------------3----------------------------------------------|
|----------------------------------------------------------------|

but im really not sure about that riff
so for the time being just strum E,C and A chord diagramBB under the words


breakdown;
piano arranged for guitar (i think its right, again e-mail me)

e-|----5-5--4-2-2~~~---------5-5--4-2-2~~~--|

the occasinal strumings are just straming Asus2,

then the outro


outro;
A chord diagramE MajorE & A chord diagramAsus2Asus2

finish on A chord diagramE MajorE

(fade)

well thats Capocity, as i said before i'm not sure about the solo or that riff
after the solo. E-mails would be greatly
appriciated same with corrections, my E-mail is d_colson@stpatricks.tas.edu.au
The solo is probably totally wrong, but its what i came up with :)

this is my first tab so be nice

Tab by Dylan Colson......

Almost there ...

Sign in to get your own page with links to favourite songs and more. You are just one click away...

Login with Facebook Login with Google