Log in

One click and you are in

Login with Facebook Login with Google

Why sign up and log in

Guitar Tabs Explorer
The Potbelleez bass tabs for Hello

Bass tabs

Notes: 	Enjoy Coke!

0:00 - 0:52

G |----------------|----------------|----------------|----------------|
D |----------------|----------------|----------------|------------1---|
A |----------------|--------1---1---|----------------|--------3-------|
E |1---1---1-------|----1-1---------|4---4---4-------|----4-4---------|
B |----------------|----------------|----------------|----------------|
  1 & 2 & 3 & 4 & 1 & 2 & 3 & 4 & 1 & 2 & 3 & 4 & 1 & 2 & 3 & 4 &

0:52 - 1:00

G |----------------|----------------|----------------|----------------|
D |----------------|----------------|----------------|----------1---1-|
A |----------------|--------1---1---|----------------|--------3---3---|
E |1---1---1-------|----1-1---------|4---4---4-------|----4-4---------|
B |----------------|----------------|----------------|----------------|
  1 & 2 & 3 & 4 & 1 & 2 & 3 & 4 & 1 & 2 & 3 & 4 & 1 & 2 & 3 & 4 &

1:00 - 1:07

G |----------------|----------------|----------------|----------------|
D |----------------|----------------|----------------|------------1---|
A |----------------|--------1---1---|----------------|--------3-------|
E |1---1---1-------|----1-1---------|4---4---4-------|----4-4---------|
B |----------------|----------------|----------------|----------------|
  1 & 2 & 3 & 4 & 1 & 2 & 3 & 4 & 1 & 2 & 3 & 4 & 1 & 2 & 3 & 4 &

1:07 - 1:13

G |----------------|----------------|----------------|----------------|
D |----------------|----------------|----------------|----------------|
A |----------------|--------1---1---|----------------|----------------|
E |1---1---1-------|----1-1---------|4---4---4---4---|8\--------------|
B |----------------|----------------|----------------|----------------|
  1 & 2 & 3 & 4 & 1 & 2 & 3 & 4 & 1 & 2 & 3 & 4 & 1 & 2 & 3 & 4 &

1:14 - 1:44

G |----------------|----------------|----------------|----------------|
D |----------------|----------------|----------------|------------1---|
A |----------------|--------1---1---|----------------|--------3-------|
E |1---1---1-------|----1-1---------|4---4---4-------|----4-4---------|
B |----------------|----------------|----------------|----------------|
  1 & 2 & 3 & 4 & 1 & 2 & 3 & 4 & 1 & 2 & 3 & 4 & 1 & 2 & 3 & 4 &

1:44 - 1:52

G |----------------|----------------|----------------|----------------|
D |----------------|----------------|----------------|----------------|
A |----------------|--------1---1---|----------------|--------3-------|
E |1---1---1-------|----1-1---------|4---4---4-------|----4-4---------|
B |----------------|----------------|----------------|----------------|
  1 & 2 & 3 & 4 & 1 & 2 & 3 & 4 & 1 & 2 & 3 & 4 & 1 & 2 & 3 & 4 &

1:52 - 1:59

G |----------------|----------------|----------------|----------------|
D |----------------|----------------|----------------|----------1---1-|
A |----------------|--------1---1---|----------------|--------3---3---|
E |1---1---1-------|----1-1---------|4---4---4-------|----4-4---------|
B |----------------|----------------|----------------|----------------|
  1 & 2 & 3 & 4 & 1 & 2 & 3 & 4 & 1 & 2 & 3 & 4 & 1 & 2 & 3 & 4 &

1:59 - 2:07

G |----------------|----------------|----------------|----------------|
D |----------------|----------------|----------------|------------1---|
A |----------------|--------1---1---|----------------|--------3-------|
E |1---1---1-------|----1-1---------|4---4---4-------|----4-4---------|
B |----------------|----------------|----------------|----------------|
  1 & 2 & 3 & 4 & 1 & 2 & 3 & 4 & 1 & 2 & 3 & 4 & 1 & 2 & 3 & 4 &

2:07 - 2:22

G |----------------|----------------|----------------|----------------|
D |----------------|----------------|----------------|----------------|
A |----------------|--------1---1---|----------------|--------3---3---|
E |1---1---1-------|----1-1---------|4---4---4-------|----4-4---------|
B |----------------|----------------|----------------|----------------|
  1 & 2 & 3 & 4 & 1 & 2 & 3 & 4 & 1 & 2 & 3 & 4 & 1 & 2 & 3 & 4 &

G |----------------|----------------|----------------|----------------|
D |----------------|----------------|----------------|----------------|
A |----------------|----------------|----------------|----------------|
E |1---1---1---1---|1---1---1---1---|1---1---1---1---|1---1---1---1---|
B |----------------|----------------|----------------|----------------|
  1 & 2 & 3 & 4 & 1 & 2 & 3 & 4 & 1 & 2 & 3 & 4 & 1 & 2 & 3 & 4 &

2:56 - 3:27

G |----------------|----------------|----------------|----------------|
D |----------------|----------------|----------------|------------1---|
A |----------------|--------1---1---|----------------|--------3-------|
E |1---1---1-------|----1-1---------|4---4---4-------|----4-4---------|
B |----------------|----------------|----------------|----------------|
  1 & 2 & 3 & 4 & 1 & 2 & 3 & 4 & 1 & 2 & 3 & 4 & 1 & 2 & 3 & 4 &

ⓘ Bass guitar tab for 'Hello' by The Potbelleez, an electro house band formed in 2003

Almost there ...

Sign in to get your own page with links to favourite songs and more. You are just one click away...

Login with Facebook Login with Google