Search tabs and chords

Browse bands and artists

A B C D E F G H I J K L M N O P Q R S T U V W X Y Z #

Log in

[ Register here | Forgot password ]

Guitar Tabs Explorer
Print

Bass tabs :

Feel It Still bass tab by Portugal. The Man

  • Tuning: Standard
Such a great song with a great groove, surprised this hasn’t been tabbed yet.
It’s pretty easy, it just repeats the same pattern throughout.


Intro
(0:00)
G|-------------------------------------------------------|
D|-------------------------------------------------------|
A|---4--4--4---4--4--4---7--7--7---7--7--7---------------|
E|-----------0---------0---------0---------0-------------|
                                                          (x2)
G|-------------------------------------------------------|
D|-------------------------------------------------------|
A|---9--9--9---9--9--9---4--4--4---4--4--4---------------|
E|-----------0---------0---------0---------0-------------|

Chorus
(0:24)
"Ooh, Imma rebel just for..."
G|-------------------------------------------------------|
D|-------------------------------------------------------|
A|---4--4--4---4--4--4---7--7--7---7--7--7---------------|
E|-----------0---------0---------0---------0-------------|
                                                          (x2)
G|-------------------------------------------------------|
D|-------------------------------------------------------|
A|---9--9--9---9--9--9---4--4--4---4--4--4---------------|
E|-----------0---------0---------0---------0-------------|
G|-------------------------------------------------------|
D|-------------------------------------------------------|
A|---9--9--9---9--9--9---4--4--4---4---------------------|
E|-----------0---------0---------0-----------------------|


Verse
(0:48)
"...feed..."
G|-------------------------------------------------------|
D|-------------------------------------------------------|
A|---4--4--4---4--4--4---7--7--7---7--7--7---------------|
E|-----------0---------0---------0---------0-------------|

G|-------------------------------------------------------|
D|-------------------------------------------------------|
A|---9--9--9---9--9--9---4--4--4---4--4--4---------------|
E|-----------0---------0---------0---------0-------------|
Chorus
(1:03)
"...kicks now..."
G|---------------------------------|
D|---------------------------------|
A|---7---7--7--7---7--7--7---------|
E|-----0---------0---------0-------|
G|-------------------------------------------------------|
D|-------------------------------------------------------|
A|---9--9--9---9--9--9---4--4--4---4--4--4---------------|
E|-----------0---------0---------0---------0-------------|

G|-------------------------------------------------------|
D|-------------------------------------------------------|
A|---4--4--4---4--4--4---7--7--7---7--7--7---------------|
E|-----------0---------0---------0---------0-------------|

G|-------------------------------------------------------|
D|-------------------------------------------------------|
A|---9--9--9---9--9--9---4--4--4---4--4--4---------------|
E|-----------0---------0---------0---------0-------------|


Bridge
(1:25)
"...peace..."
G|-------------------------------------------------------|
D|-------------------------------------------------------|
A|-----------------------4--4--4---4--4--4---------------| (x4)
E|---5--5--5-0-2--2--2-0---------0---------0-------------|

(1:49)
"Is it coming?"
G|-------------------------------------------------------|
D|-------------------------------------------------------|
A|-----------------------4--4--4---4--4--4---------------|
E|---5--5--5-0-2--2--2-0---------0---------0-------------|

G|-------------------------------------------------------|
D|-------------------------------------------------------|
A|-----------------------4-------------------------------|
E|---5--5--5-0-2--2--2-0---------------------------------|

Chorus
(2:01)
"Ooh, Imma rebel just for..."
G|-------------------------------------------------------|
D|-------------------------------------------------------|
A|---4--4--4---4--4--4---7--7--7---7--7--7---------------|
E|-----------0---------0---------0---------0-------------|
G|-------------------------------------4-----------------|
D|-----------------------------------2-------------------|
A|---9--9--9---9--9--9-----------4-4---------------------|
E|-----------0-------------------------------------------|

(2:13)
"Ooh, Imma rebel just for..."
G|-------------------------------------------------------|
D|-------------------------------------------------------|
A|---4--4--4---4--4--4---7--7--7---7--7--7---------------|
E|-----------0---------0---------0---------0-------------|
                                                          (x2)
G|-------------------------------------------------------|
D|-------------------------------------------------------|
A|---9--9--9---9--9--9---4--4--4---4--4--4---------------|

Comments

Portugal. The Man bass tabs for Feel it still