Log in

One click and you are in

Login with Facebook Login with Google

Why sign up and log in

Guitar Tabs Explorer
Portugal. The Man bass tabs for Feel it still (Ver. 2)

Feel It Still bass tab by Portugal. The Man (Ver. 2)

Portugal. The Man bass tabs for Feel it still (Ver. 2)

Bass tabs

G |---|---------------------------------------------------------------------------------------|
D |---|---------------------------------------------------------------------------------------| X3
A |---|-4---4---4-4---4---4-7---7---7-7---7---7-9---9---9-9---9---9-4---4---4-4---4---4-------|
E |16\|----------4---------4---------7---------7---------9---------9---------4---------4------|

G |-----------------------------------------------------------------------6-------------------|
D |-------------------------------------------------------------------------------------------| X1
A |-4---4---4-4---4---4-7---7---7-7---7---7-9---9---9-9---9---9-4---4---4---------16/---------|
E |----------4---------4---------7---------7---------9---------9---------4--------------------|

G |-------------------------------------------------------------------------------------------|
D |-------------------------------------------------------------------------------------------| X1
A |-4---4---4-4---4---4-7---7---7-7---7---7-9---9---9-9---9---9-4---4---4-4---4---4-----------|
E |----------4---------4---------7---------7---------9---------9---------4---------4----------|

rest

G |-------------------------------------------------------------------------------------------|
D |--------------------------------9/11-9-----------------------------------------------------| X1
A |--7---7---7-7---7---7-9---9---9--------11-9-------4---4---4-4---4---4----------------------|
E |4----------7---------7---------9------------9/12~----------4---------4---------------------|

G |-------------------------------------------------------------------------------------------|
D |-------------------------------------------------------------------------------------------| X1
A |-4---4---4-4---4---4-7---7---7-7---7---7-9---9---9-9---9---9-4---4---4-4---4---4-----------|
E |----------4---------4---------7---------7---------9---------9---------4---------4----------|

G |-------------------------------------------------------------------------------------------|
D |-------------------------------------------------------------------------------------------| X6
A |-----------------------4---4---4-4---4---4-------------------------------------------------|
E |-5---5---5---2---2---2----------4---------4------------------------------------------------|

G |-------------------------------------------------------------------------------------------|
D |-------------------------------------------------------------------------------------------| X1
A |-4---4---4-4---4---4-7---7---7-7---7---7-9---9---9-9---9---9-4-----------------------------|
E |----------4---------4---------7---------7---------9---------9------------------------------|

rest

G |-------------------------------------------------------------------------------------------|
D |-------------------------------------------------------------------------------------------| X1
A |-4---4---4-4---4---4-7---7---7-7---7---7-9---9---9-9---9---9-4---4---4-4---4---4-----------|
E |----------4---------4---------7---------7---------9---------9---------4---------4----------|

G |-------------------------------------------------------------------------------------------|
D |---------------------------------------------------9/11-9----------------------------------| X1
A |-4---4---4-4---4---4-7---7---7-7---7---7-9---9---9--------11-9-------4---4---4-4---4---4-4-|
E |----------4---------4---------7---------7---------9------------9/12~----------4---------4--|

Other versions of Feel It Still

Feel it stillBass tabs

Almost there ...

Sign in to get your own page with links to favourite songs and more. You are just one click away...

Login with Facebook Login with Google