Log in

One click and you are in

Login with Facebook Login with Google

Why sign up and log in

Guitar Tabs Explorer
Portishead tabs for Wandering stars

Guitar tabs with lyrics

There are 3 versions below (easy, moderate, difficult).  Start wherever you feel
 Underneath the 3rd version is the simple fills they throw in throughout the song.
band,
song, and I hope this helps out.  I can be contacted at buffalo_firefighter225@yahoo.com
any questions or clarifications.  Enjoy!

VERSION #1: For beginners (easy)
e:-------------------------|---------------------------|
B:-------------------------|---------------------------|
G:-------------------------|---------------------------|
D:-------------------------|---------------------------|
A:-4--4--4--4--4--4--4--4--|--4--4--4--4--3--3--3--3---|
E:-4--4--4--4--5--5--5--5--|--4--4--4--4--4--4--4--4---|

VERSION #2: Will sound spot on (moderate difficulty)
e:-------------------------|---------------------------|
B:-------------------------|---------------------------|
G:-6--6--6--6--6--6--6--6--|--6--6--6--6--5--5--5--5---|
D:-6--6--6--6--7--7--7--7--|--6--6--6--6--6--6--6--6---|
A:-4--4--4--4--X--X--X--X--|--4--4--4--4--6--6--6--6---|
E:-4--4--4--4--5--5--5--5--|--4--4--4--4--4--4--4--4---|

VERSION #3: Album version (difficult - for advanced players)
e:-------------------------|---------------------------|
B:-------------------------|---------------------------|
G:-6--6--6--6--6--6--6--6--|--6--6--6--6--5--5--5--5---|
D:-6--6--6--6--7--7--7--7--|--6--6--6--6--6--6--6--6---|
A:-4--4--4--4--4--4--4--4--|--4--4--4--4--6--6--6--6---|
E:-4--4--4--4--5--5--5--5--|--4--4--4--4--4--4--4--4---|

Fills throughout the song:
e:---------------------|--------------|
B:---------------------|--------------|
G:---------------------|---11-9--7--4-|
D:-6p5-6p5-6p5-6p5-6s9-|--------------|
A:---------------------|--------------|
E:---------------------|--------------|

LYRICS:
Please could you stay awhile to share my grief
For its such a lovely day
To have to always feel this way
And the time that I will suffer less
Is when I never have to wake

Wandering stars, for whom it is reserved
The blackness of darkness forever
Wandering stars, for whom it is reserved
The blackness of darkness forever

... Those who have seen the needles eye, now tread
Like a husk, from which all that was, now has fled
And the masks, that the monsters wear
To feed, upon their prey

Wandering stars, for whom it is reserved
The blackness of darkness forever
Wandering stars, for whom it is reserved
The blackness of darkness forever


[INSTRUMENTAL]

(always) doubled up inside
Take awhile to shed my grief
(always) doubled up inside
Taunted, cruel.... ...

Wandering stars, for whom it is reserved
The blackness of darkness forever
Wandering stars, for whom it is reserved

Other versions of Wandering Stars

Wandering starsChords

Almost there ...

Sign in to get your own page with links to favourite songs and more. You are just one click away...

Login with Facebook Login with Google