Log in

One click and you are in

Login with Facebook Login with Google

Why sign up and log in

Guitar Tabs Explorer
Portishead bass tabs for Roads live

Bass tabs

This specific tab is based off the live version, from the Roseland New York live,
video here: https://www.youtube.com/watch v=Vg1jyL3cr60

(starts at 3:30)
G|---------------9-7---5-7-5---|
D|-------------7-------------5-|
A|-----------------------------|
E|-----------------------------|


G|-----------------------------|-----------------------------|
D|--7-------7-7----------9-10--|--5-------5-5-----------7-9--|
A|--------7--------------------|--------7--------------------|
E|-----------------------------|-----------------------------|


G|-----------------------------|-----------------------------|
D|-----------------------------|-----------------------------|
A|--8-----7-8-8----------x-10--|--7-----7-8-7-8-p0-----------|
E|-----------------------------|-----------------------------|


G|-----------------------------|-----------------------------|
D|--7-------7-7----------------|--5-------5-5-----------5/10-|
A|--------7--------------------|--------7--------------------|
E|-----------------------------|-----------------------------|


G|-----------------------------|----------9-7---5-7-5--------|
D|--10----9--10-10-------x-12--|--9-----7-------------7-5----|
A|-----------------------------|-----------------------------|
E|-----------------------------|-----------------------------|


G|-----------------------------|-----------------------------|
D|-----------------------------|-----------------------------|
A|--8-----10-----12------------|--12\8-----10-----7----------|
E|-----------------------------|------------------0----------|


************************************

| x  Dead note
| p  Pull-off
| /  Slide up
| \  Slide down

Almost there ...

Sign in to get your own page with links to favourite songs and more. You are just one click away...

Login with Facebook Login with Google