Log in

One click and you are in

Login with Facebook Login with Google

Why sign up and log in

Guitar Tabs Explorer
Portishead bass tabs for Its a fire

Bass tabs

Tuning: Standard (E A D G)

Difficulty: Intermediate

Artist : Portishead
Album : Dummy
Song : It's A Fire

Verse: 0:34

G|----------------|
D|------------18--|
A|---------/17----|
E|----------------|

G(12)-------------(16)-------------(12)-------------(16)-------------|
D|----------------|------------18--|----------------|------------18--|
A|----------------|---------/17----|----------------|---------/17----|
E|12--------------|15--------------|12--------------|15--------------|

G(14)-------------(13)-------------|----------------|----------------|
D|------------18--|------------18--|13--------------|13----------18--|
A|---------/17----|---------/17----|14--------------|14-------/17----|
E|13--------------|12--------------|----------------|----------------|

G(16)-------------(16)-------------(15)-------------(14)-------------|
D|----------------|------------18--|----------------|------------18--|
A|----------------|---------/17----|----------------|---------/17----|
E|16--------------|16--------------|14--------------|14--------------|

G|----------------|----------------(15)-------------|----------------|
D|14--------------|------------18--|----------------|15--------------|
A|16--------------|---------/17----|----------------|16--------------|
E|----------------|16--------------|14--------------|----------------|

G|----------------|----------------|----------------|----------------|
D|13--------------|11--------------|15--------------|15--------------|
A|14--------------|13--------------|16--------------|16--------------|
E|----------------|----------------|----------------|----------------|

G|----------------|----------------|----------------|----------------|
D|13--------------|11--------------|15--------------|15--------------|
A|14--------------|13--------------|16--------------|16--------------|
E|----------------|----------------|----------------|----------------|


Instrumental:
 No bass


Verse: 1:57

G|----------------(12)-------------(16)-------------|
D|------------18--|----------------|------------18--|
A|---------/17----|----------------|---------/17----|
E|----------------|12--------------|15--------------|

G(14)-------------(13)-------------|----------------|----------------|
D|----------------|------------18--|13--------------|13----------18--|
A|----------------|---------/17----|14--------------|14-------/17----|
E|13--------------|12--------------|----------------|----------------|

G(16)-------------(16)-------------(15)-------------(14)-------------|
D|----------------|------------18--|----------------|------------18--|
A|----------------|---------/17----|----------------|---------/17----|
E|16--------------|16--------------|14--------------|14--------------|

G|----------------|----------------|----------------|----------------|
D|14--------------|------------18--|----------------|15----------18--|
A|16--------------|---------/17----|----------------|16-------/17----|
E|----------------|16--------------|14--------------|----------------|

G|----------------|----------------|----------------|----------------|
D|13--------------|11--------------|15--------------|15--------------|
A|14--------------|13--------------|16--------------|16--------------|
E|----------------|----------------|----------------|----------------|

G|----------------|----------------|----------------|----------------|
D|13----------13--|11--------------|15--------------|15--------------|
A|14----------14--|13--------------|16--------------|16--------------|
E|----------------|----------------|----------------|----------------|

G|----------------|----------------|----------------|----------------|
D|13--------------|11----------18--|15--------------|15----------18--|
A|14--------------|13-------/17----|16--------------|16-------/17----|
E|----------------|----------------|----------------|----------------|


Outro:

G|----------------|----------------|----------------|----------------|
D|13----------18--|11----------18--|17----------18--|18----------18--|
A|14-------/17----|13-------/17----|18-------/17----|17-------/17----| repeat & fade out
E|----------------|----------------|----------------|----------------|


************************************

| x  Dead note
| (n) Ghost note (completely optional)
| /  Slide up

************************************

Almost there ...

Sign in to get your own page with links to favourite songs and more. You are just one click away...

Login with Facebook Login with Google