Log in

One click and you are in

Login with Facebook Login with Google

Why sign up and log in

Guitar Tabs Explorer
Portishead tabs for Glory box

Guitar tabs

Album: Dummy

Gtr1: neck pick-up, lots of distorsion, treble, wah for the solo

h: hammer-on
p: pull off
b: bend
rb: release bend
rp: re-pick (bend and pick at actual pitch)
~: hold
*: tremolo / vibrato

tabbed by BoF feel free to send me feedback
and corrections at Bof_mu@caramail.com
Intro (Bass)
G--------------------------------------------------------
D--------------------------------------------------------
A--6---6-4---4-3---3-2---3-6-----------------------------
E--------------------------------------------------------


Verse (Bass)
G--------------------------------------------------------
D--------------------------------------------------------
A--6---6-4---4-3---3-2---3-6-----------------------------
E--------------------------------------------------------


Chorus
Distorted
e--------------------------------------------------------
B--------------------------------------------------------
G------7b8*-----5b6*------4b5*-----3b4*------------------
D----8--------6---------5--------4-----------------------x2
A--6------6-4-------4-3------3-2-------------------------
E--------------------------------------------------------

Verse
same


Solo
distorsion and wah                hold bend         faster>>>
e--------------------------------------------------------
B--------------------------------13b14--rp14----rp14-----
G-17-14-13-------13--------------13b14------rp14----rp14-
D----------16-13----16-13--16.---------------------------
A--------------------------------------------------------
E--------------------------------------------------------


e-----------------------------------
B-----------------------------------
G-------13--------------------------
D-16-13----16-13----13---16p14p13---
A----------------16-----------------
E-----------------------------------

                  very fast bit
e---------------------------------------------------------
B--12b13--------------------------------------------------
G--12b13--13b15~rb-12b13~rb-10b11~rb-9b10~rb-7b8~rb-------
D---------------------------------------------------------
A---------------------------------------------------------
E---------------------------------------------------------
          .....gradual bend releases...............

e------------------------------------------
B-------11-9-------------------------------
G--11-8------------------------------------
D----------------4-6-6b7-6b7-6b7--4--------
A--------------6--------------------6------
E------------------------------------------

Back to Chorus

Hope you enjoyed it!
tabbed by BoF feel free to send me feedback
and corrections at Bof_mu@caramail.com

Other versions of Glory Box

Glory boxChords

Almost there ...

Sign in to get your own page with links to favourite songs and more. You are just one click away...

Login with Facebook Login with Google