Log in

One click and you are in

Login with Facebook Login with Google

Why sign up and log in

Guitar Tabs Explorer
Portishead tabs for Elysium

Guitar tabs

Album:Portishead
Tabed by:Chris Baigent(krisbchip@hotmail.com)

This song doesnt have much guitaring in it, apart from there is 1
chord that is played every so often.If you have seen the portishead
video you would of seen the singer play it.

EADGBe
||||||
557768
||||||


solo
e------------------------------------------- |
B------------------------------------------- |
G------------------7------7--7----10-------- |
D--8~----7--5------------------------------- |
A------------------------------------------- |
E------------------7------7--7----10-------- |

e------------------------------------------- |
B------------------------------------------- |
G------10--10----6------6---6---2-----2--2-- |
D------------------------------------------- |
A------------------------------------------- |
E--10------------6---6----------2-----2--2-- |

e------------------------------------------- |
B------------------------------------------- |
G-10------12--10--9-------9h10------5------- |
D------------------------------------------- |
A------------------------------------------- |
E-10--10----------9----9------------5------- |

e------------------------------------------- |
B------------------------------------------- |
G----5---4--3-------3---3--7---7-7----10---- |
D------------------------------------------- |
A------------------------------------------- |
E-5------4--3---3----------7---7-7----10---- |

e------------------------------------------- |
B------------------------------------------- |
G-------10--10--6-----6h8----4----4--4------ |
D------------------------------------------- |
A------------------------------------------- |
E--10-----------6--6---------4----4--4------ |

Almost there ...

Sign in to get your own page with links to favourite songs and more. You are just one click away...

Login with Facebook Login with Google