Log in

One click and you are in

Login with Facebook Login with Google

Why sign up and log in

Guitar Tabs Explorer
Porno For Pyros tabs for Good gods urge

Guitar tabs with lyrics

"Good Gods Urge"
by Porno for Pyros


CHORDS USED

   A chord diagramA augmentedA   A(no3rd)  B?   A chord diagramAsus4Asus4    A chord diagramE MajorE      A chord diagramD MajorD

---0------0------0------0------0------0-|
---0------0------0------0------2------0-|
---2------2------4------2------2------0-|
---2------2------4------2------1------2-|
---2------0------3------3------0------3-|
---0------0------0------0------0------2-|
A chord diagramA augmentedA    A(no3)      A chord diagramA augmentedA   A(no3)
Good Gods don't take away
B?  A- A(no3)     B?         A-A(no3)     B?
my father,       give him back his legs
B?		  A chord diagramE MajorE
don't take away his heart
A chord diagramA augmentedA             A(sus4)
don't take away
A chord diagramE MajorE
his son, his mind,
        A chord diagramA augmentedA
his family

(SMALL PAUSE)

A(no3)-A (to second verse)

Second verse is the same progression as the first verse.
The only exception is the end part which is .......

A chord diagramD MajorD            A chord diagramA augmentedA         A chord diagramE MajorE
I'm his family.............
--------------------------------------------------------------------------------
Somewhat rough rhythm

---0--0--0--0--0--0--0--0--0--0--0--0--0--0--0--0--0--0--0--0--0-|
---0--0--0--0--0--0--0--0--0--0--0--0--0--0--0--0--0--0--0--0--0-|
---2--2--2--2--2--2--2--2--2--2--4--4--4--2--2--4--4--4--2--2--4-|
---2--2--2--2--2--2--2--2--2--2--4--4--4--2--2--4--4--4--2--2--4-|
---2--2--2--0--0--2--2--2--0--0--3--3--3--2--0--3--3--3--2--0--3-|
---0--0--0--0--0--0--0--0--0--0--0--0--0--0--0--0--0--0--0--0--0-|


---0--0--0--0--0--0--0--0--0--0--0--0--0--0--0-|
---0--0--0--0--2--2--2--2--2--0--0--0--0--0--2-|
---4--4--4--4--2--2--2--2--2--2--2--2--2--2--2-| Hold "E" then repeat
---4--4--4--4--1--1--1--1--1--2--2--2--2--2--1-|
---3--3--3--3--0--0--0--0--0--2--2--2--3--2--0-|
---0--0--0--0--0--0--0--0--0--0--0--0--0--0--0-|

the rhythm is rather easy to figure out if you have a copy of the song
but we know, Peter plays it higher on the fret board.  It's the general idea.
To be posted later:  Harmonica solo For "Kimberly Austin" arranged for the
guitar.  bye now X96fordyce@wmich.edu

If X96fordyce@wmich.edu doesn't work, danhale@hotmail.com will work.

Enjoy!!!!

Jared and Dan

Other versions of Good Gods Urge

Good gods urgeChords

Almost there ...

Sign in to get your own page with links to favourite songs and more. You are just one click away...

Login with Facebook Login with Google