Log in

One click and you are in

Login with Facebook Login with Google

Why sign up and log in

Guitar Tabs Explorer
Popa Chubby tabs for Life is a beatdown

Guitar tabs

Life is a Beatdown
(Popa Chubby – «Peace, Love and Respect» )


Chords :



Lam / A chord diagramFF / A chord diagramG+G / Lam
Lam / A chord diagramFF / A chord diagramD MajorDA chord diagramG+G – Lam




Solo 1 :



|--------------------------------------5------------|
|----------------------1-0-----------------8—-6~~---|
|--2-2-2-2---2---2-2-2-----0-2----------------------|
|----------2---------------------7-7-7--------------|
|------------------—--------------------------------|
|--------------—------------------------------------|

|---------------------------------------------------|
|--6p5------------------------------------------1-0-|
|------7B7p5—7-5------------2-2-2-2---2---2-2-2-----|
|-----------------7-5-7~~/----------2---------------|
|------------------—--------------------------------|
|--------------—------------------------------------|

|---------------------------------------------------|
|--------8FB8-8FB--8-5-8--8-5---5--------7-(5)------|
|--0-2~~-—--------------------7---7B7p5--7--5-------|
|---------------------------------------------------|
|------------------—--------------------------------|
|--------------—------------------------------------|

|---------------------------------------------------|
|---------------5-----------------------------------|
|------—--------5-----------------------------------|
|--7--5--7---7--------------------------------------|
|------------------—--------------------------------|
|--------------—------------------------------------|




Solo 2 :



|---------------------------------------------------|
|--X-X-X--------------------------------------------|
|--X-X-X--—----------4-5-4~~--7B7p5-7-5---------5---|
|--X-X-X--7-7-7-7-7---------------------5-5-7-7---7-|
|------------------—--------------------------------|
|--------------—------------------------------------|

|--5-5----------------------------------------------|
|------8--8-8--5—-5-5-------------------------------|
|------—--------------7--7-7-5—5/4-5-4h5p4-5-4------|
|----------------------------------------------7~~/-|
|------------------—--------------------------------|
|--------------—------------------------------------|

|---------------------------------------------------|
|--9—10/9p6-9—-6p5-5-6p5----------------------------|
|------—-----------------7--7-5-4-5—-5p4---4---4----|
|----------------------------------------7---7------|
|------------------—--------------------------------|
|--------------—------------------------------------|

|------------------------------8--------8-10FB-10FB-|
|----------------------------8—-10~~-10-------------|
|--5-7-4-5—4-5~~4~~-------/9------------------------|
|-------------------7~~/----------------------------|
|------------------—--------------------------------|
|--------------—------------------------------------|

|--10FB-10FB-10FB-10FB10p8-10-8----8----------------|
|-------------------------------10---10p8---8---8---|
|------—----------------------------------9---9-----|
|---------------------------------------------------|
|------------------—--------------------------------|
|--------------—------------------------------------|

|--8---------^-12-11-10h11p10/8-10-8---------8-10---|
|----8—10~~--|-R---------------------10-10~~--------|
|------—-----|-A------------------------------------|
|------------|-K------------------------------------|
|------------|-E-----—------------------------------|
|--------------—------------------------------------|

|--10FB-8-------------5-----5-8-5---5---------------|
|---------10~~/-----5---5-8-------8---8p5---5-------|
|------—---------/5-----------------------7---7B7p5-|
|---------------------------------------------------|
|------------------—--------------------------------|
|--------------—------------------------------------|

|---------------------------------------------------|
|--------------------5-L-E-T------------------------|
|--7-5-7--7—5-7-5----5-------R-I-N-G----------------|
|-----------------7---------------------------------|
|------------------—--------------------------------|
|--------------—------------------------------------|




Guide to Tablature

b:1/4 bend
B:1/2 bend
FB:full bend
5FB5:bend and release
5FB5p0:bend, release and pull off
h:hammer on
p:pull off
/:slide
~:vibrato
PM:Palm Muted
.:dotted note
X:note played with heavy damping

---------------------------------------------
“Life is a Beatdown” by Popa Chubby, as heard on the album “Peace, Love and Respect”

Transcription: Frédéric Winne

choko_tof@yahoo.fr
Try the Brussels City Blues !

Almost there ...

Sign in to get your own page with links to favourite songs and more. You are just one click away...

Login with Facebook Login with Google