Log in

One click and you are in

Login with Facebook Login with Google

Why sign up and log in

Guitar Tabs Explorer
Popa Chubby tabs for Dance the night away

Guitar tabs

Title: Dance The Night Away
Album: One Million Broken Guitars

This is only the intro. For solo you may use A chord diagramE MajorE dorian scale

------------------------------------------------------------------------------
------------------------------------------------------------------------------
-----------------------------6---7---7---6------------------4---7---6---------
-----------------7---7---7---7---5---5---5------------------5---7---7---------
-5---5---5---5---5---5---5---7------------------------------5---5---7---------
-3---3---3---3---------------5------------------------------3-------5---------
                                            repeat 3 times   A chord diagramG+G   A chord diagramD MajorD   A chord diagramA augmentedA

------------------------------------------------------------------------------
------------------------------------------------------------------------------
-4---7---6---7---7---6-p-4----------------------------------------------------
-5---7---7------------------7-------------------------------------------------
-5---5---7--------------------------------------------------------------------
-3-------5--------------------------------------------------------------------
  A chord diagramG+G   A chord diagramD MajorD   A chord diagramA augmentedA                 repeat 4 times

------------------------------------------------------------------------------
------------------------------------------------------------------------------
----------2---2-------2---4---5---4-p-2-------2-----2---2---------------------
-2---5------------5-----------------------5------5---------5---4---2---0---4--
------------------------------------------------------------------------------
------------------------------------------------------------------------------


------------------------------------------------------------------------------
------------------------------------------------------------------------------
------------------------------------------------------------------7---6-------
-2---0-------2---0--------------------------------------------7---7-----------
---------4-----------4---2---4---2---0-------0---0--------7-------------------
-----------------------------------------3------------5-------------------3/5-


------------------------------------------------------------------------------
---------------------------7---5----4---7---6---------------------------------
---------------------------7---5----5---7---7---------------------------------
---------------------------7---5----5---5---7---------------------------------
-0---------0----------0-------------3-------5---------------------------------
-----3/5--------3/5-----------------------------------------------------------
                                     A chord diagramG+G   A chord diagramD MajorD   A chord diagramA augmentedA


visit:http://www.obesiweb.it

Almost there ...

Sign in to get your own page with links to favourite songs and more. You are just one click away...

Login with Facebook Login with Google