Log in

One click and you are in

Login with Facebook Login with Google

Why sign up and log in

Guitar Tabs Explorer
Pop Will Eat Itself bass tabs for Teenage grandad

Teenage Grandad bass tab - Pop Will Eat Itself

Pop Will Eat Itself bass tabs for Teenage grandad

Bass tabs with lyrics

[===============================================]
    Teenage Grandad, By Pop Will Eat Itself
 [===============================================]

  ..Tabbed out mostly by my bass teacher.. :)

Here's the bass tab for Pop Will Eat Itself's Teenage Grandad off of "The
Looks Or The Lifestyle." Enjoy, poppies..

This is the beginning part, with all the nightclub sounds in the backround.
It stays the same for when he starts singing, then he plays the part after
the double |'s.


 G:|-----------------------2-1-0------||---------------------------------|
 D:|-----0-----3---0-4---2-------3-2--||-----0-----3---5-----5-----5-----|
 A:|-2-0-----3---0-----2--------------||-2-0-----3---0---7-0---7-0---7---|
 E:|-------3--------------------------||-------3-------------------------|
   repeat this part until he sings   then play this, and add some
   "i never know when the night has  distortion at "and it's true!"
   ended.." or "have a nice death,   or "on the run!" depending on the
   but im no titanic, depending on   verse.
   the verse."


This is the fast chorus-tye part played often in the song..

 G:|----------------------------------|  repeat this as much as necessary,
 D:|---------88-5---------------------|  then end with a held out 7 on the
 A:|-7777777-------7777777-99-10------|  A string after the '88 5.'
 E:|----------------------------------|

Here is the "living like a teenage grandad, looking rather sad.." part
played after the second chorus.

 G:|-----------------------------------|
 D:|-----------------------------------|
 A:|-7-/-/-/-/-/-------9-/-/-/-/-/-----|
 E:|-------------7-6---------------7-6-|


And here is the part played after the one above.

 G:|----------------------||--------------------|
 D:|----------------------||------------5-------|
 A:|-7-XX-5-X-7-------5---||-7-XX-5-X-7-----5---|
 E:|------------X-5-7-----||--------------7-----|
              or


And that pretty much covers it. You should be able to piece the whole
song together from that.. anyone with any other pwei tabs, PLEASE send
them up.. adios, mis amigos.


    written out by noah, email to image@cyberwar.com with comments,
    letters of appreciation, and other tabs. :)

            "..i've been faking this for hours.. but then
             i've always been a coward, baby.."

Almost there ...

Sign in to get your own page with links to favourite songs and more. You are just one click away...

Login with Facebook Login with Google