Log in

One click and you are in

Login with Facebook Login with Google

Why sign up and log in

Guitar Tabs Explorer
Pop Evil bass tabs for Ways to get high

Bass tabs

-------------------------------------------------------------------------------
            Ways to Get High - Pop Evil
-------------------------------------------------------------------------------
Tabbed by: jayopp9

Tuning: Standard
Verse

G|---------------------------------------------------------------------------|
D|--7------5---9--7------5------7------5---9--75555555-----------------------|
A|-----5-7---7-------5-7---7-------5-7---7-----------------------------------|
E|---------------------------5-----------------------------------------------|


Chorus

G|---------------------------------------------------------------------------|
D|---------------------------------------------------------------------------|
A|--0--0--------1-1-1-1-1-1-1-1----------------------------------------------|
E|--------1--1---------------------------------------------------------------|

Song Structure:


Verse x5

Chorus x4

Verse x3

Chorus x8

Verse x4

Chorus x8

| / slide up
| \ slide down
| h hammer-on
| p pull-off
| ~ vibrato
| + harmonic
| x Mute note

Almost there ...

Sign in to get your own page with links to favourite songs and more. You are just one click away...

Login with Facebook Login with Google