Log in

One click and you are in

Login with Facebook Login with Google

Why sign up and log in

Guitar Tabs Explorer
Pop Evil bass tabs for Take it all

Bass tabs

Intro:
Play verse at 00:10s and 00:27s


Verse:
F||----------------------------------------------------------------------------||
C||--------5-5h7p5--------------------------------5-5h7p5--------------5h6p5---||
G||----7-----------7p5p0h7------------------7------------7p5p0h7---------------||
D||------0------------------0---3^-3^-3^------0----------------------0---------||
Pre-Chorus:
F||----------------------||      ||------------------------------||
C||----2-----------------|| 3x    ||------------------------------||
G||----------------------||      ||------------------------------||
D||------0---3-3-3-------||      ||----0----x3---0----x3---0-----||


Chorus:
F||---------------------------------------------------------------------------------||
C||---------------------------------------------------------------------------------|| 2x
G||---------------------7-7-7-7-5/-7-7-7-7-7-7-7---------------------7-5-7--7-5-7---||
D||---3-3-3-3--5-5-5-5-----------------------------3-3-3-3--5-5-5-5-----------------||


Verse:
F||----------------------------------------------------------------------------||
C||--------5-5h7p5--------------------------------5-5h7p5--------------5h6p5---|| 2x
G||----7-----------7p5p0h7-------------------7------------7p5p0h7--------------||
D||-------0------------------0---3^-3^-3^------0----------------------0--------||


Pre-Chorus:
F||----------------------||      ||------------------------------||
C||-----2----------------|| 3x    ||------------------------------||
G||----------------------||      ||------------------------------||
D||------0---3-3-3-------||      ||----0----x3---0----x3---0-----||

Chorus:
F||---------------------------------------------------------------------------------||
C||---------------------------------------------------------------------------------||
G||---------------------7-7-7-7-5/-7-7-7-7-7-7-7---------------------7-5-7--7-5-7---||
D||---3-3-3-3--5-5-5-5-----------------------------3-3-3-3--5-5-5-5-----------------||

Interlude:
F||-------------------------------------||
C||-------------------------------------|| 3x then pause...
G||-------------------------------------||
D||---0-00000-00-00-00000-00-00--0-0----||


Chorus:
F||---------------------------------------------------------------------------------||
C||---------------------------------------------------------------------------------||
G||---------------------7-7-7-7-5/-7-7-7-7-7-7-7---------------------7-5-7--7-5-7---||
D||---3-3-3-3--5-5-5-5-----------------------------3-3-3-3--5-5-5-5-----------------||


Outro:
F||---------------------------------------------------------------------------------||
C||---------------------------------------------------------------------------------||
G||---------------------7-7-7-7-5/-7-7-7-7-7-7-7---------------------7-5-7--7-5-7---||
D||---3-3-3-3--5-5-5-5-----------------------------3-3-3-3--5-5-5-5-----------------||

F||---------------------------------------------------------------------------------||
C||---------------------------------------------------------------------------------||
G||---------------------7-7-7-7-5/-7-7-7-7-7-7-7---------------------7-7-7-7-7-7-7--||
D||---3-3-3-3--5-5-5-5-----------------------------3-3-3-3--5-5-5-5-----------------||


************************************

| h Hammer-on
| p Pull-off
| x Dead note
| / Slide up

Almost there ...

Sign in to get your own page with links to favourite songs and more. You are just one click away...

Login with Facebook Login with Google