Log in

One click and you are in

Login with Facebook Login with Google

Why sign up and log in

Guitar Tabs Explorer
Pop Evil tabs for Monster you made me

Guitar tabs with lyrics

To tune half a step down, Put a capo on the first fret and tune as you would for standard key.
Then remove the capo and magic!! :)


Intro x2

Verse x8

Pre Chorus x1

Chorus x1

Verse x8 & 2nd Guitar Part

Chorus x 1

Bridge x3 (Listen to song for timing and when to use Palm Mutes)

Intro x2

Chorus x1

Outro (Far away through the pain etc...) Bridge *until the end of the song*


Intro:
D-------------------------------------------------|
A-------------------------------------------------|
F-------------------------------------------------|
C---------2-0---0-------9--------9----------------|
G-------0-------------7---7----6---6--------------|
C-----4-------0--0--7---------6-------------------|

Verses:

Intro:
D-------------------------------------------------|
A-------------------------------------------------|
F-------------------------------------------------|
C---------2-0---0-------9--------9----------------|
G-------0-------------7---7----6---6--------------|
C-----4-------0--0--7---------6-------------------|

Pre Chorus:
D---------------------------------------|
A---------------------------------------|
F---------------------------------------|
C--------0------2-2-2-2-2-2-2-----------|
G---------------2-2-2-2-2-2-2-----------|
C-----0----0----2-2-2-2-2-2-2-----------|


Chorus:
D-------------------------------------------------|
A-------------------------------------------------|
F-----------7-----------9-------------------------|
C-----4-----7-----7-----9-------------------------|
G-----4-----5-----7-----7-------------------------| x2
C-----4-----------7-------------------------------|

(It's not over part)
D-------------------------------------------------|
A-------------------------------------------------|
F-------------------------------------------------|
C---4-4--2-2--7-7--2-2----------------------------|
G---4-4--2-2--7-7--2-2----------------------------|
C---4-4--2-2--7-7--2-2----------------------------| pm

(I'm begging for mercy part)
D-------------------------------------------------|
A---------------------------------FILL------------|
F-----------7-----------9-------------------------|
C-----4-----7-----7-----9-------------------------|
G-----4-----5-----7-----7--------7-5-4-2----------|
C-----4-----------7-------------------------------|

2nd Verse - Second Guitar Part

D-9----9----9----9----9----9----12---12---------|
A---10---10---10---10---10---10---10----10------|
F-----------------------------------------------|
C-----------------------------------------------|
G-----------------------------------------------|
C-----------------------------------------------|


Bridge
D-------------------------------------------------|
A-------------------------------------------------|
F-----------7-----------9-------------------------|
C-----4-----7-----7-----9-------------------------|
G-----4-----5-----7-----7-------------------------|
C-----4-----------7-------------------------------|

Other versions of Monster You Made Me

Monster you made me acousticTabs

Almost there ...

Sign in to get your own page with links to favourite songs and more. You are just one click away...

Login with Facebook Login with Google