Log in

One click and you are in

Login with Facebook Login with Google

Why sign up and log in

Guitar Tabs Explorer
Pop Evil guitar tabs for Let the chaos reign

Guitar tabs

Intro:

Eb|-----------------------------------|----------------------------------|
Bb|-----------------------------------|----------------------------------|
Gb|-----------------------------------|----------------------------------|
Db|-----------------------------------|----------------------------------|
Ab|-----------------------------------|----------------------------------|
Db|-1p0--0-0-0-0--1p0-0-0-0-0-0-0-0-0-|-1p0--0-0-0-0-1p0-0-0-0-0-6p5-2h3-|

Eb|-----------------------------------|----------------------------------|
Bb|-----------------------------------|----------------------------------|
Gb|-----------------------------------|----------------------------------|
Db|-----------------------------------|----------------------------------|
Ab|-----------------------------------|----------------------------------|
Db|-1p0--0-0-0-0--1p0-0-0-0-0-0-0-0-0-|-1p0--0-0-0-0-1p0-0-0-0-0-x-x-x-x-|

Verse 1:

Eb|----------------------------------|-------------------------------------|
Bb|----------------------------------|-------------------------------------|
Gb|----------------------------------|-------------------------------------|
Db|----------------------------------|-------------------------------------|
Ab|----------------------------------|-------------------------------------|
Db|-1p0--0-0-0-0-1p0-0-0-0-0-6p5-2h3-|-1p0--0-0-0-0--1p0-0-0-0-0-12\11-0-0-|

Eb|----------------------------------|-------------------------------------|
Bb|----------------------------------|-------------------------------------|
Gb|----------------------------------|-------------------------------------|
Db|----------------------------------|-------------------------------------|
Ab|----------------------------------|-------------------------------------|
Db|-1p0--0-0-0-0-1p0-0-0-0-0-6p5-2h3-|-1p0--0-0-0-0--1p0-0-0-0-0-12\11-0-0-|

Eb|----------------------------------|-------------------------------------|
Bb|----------------------------------|-------------------------------------|
Gb|----------------------------------|-------------------------------------|
Db|----------------------------------|-------------------------------------|
Ab|----------------------------------|-------------------------------------|
Db|-1p0--0-0-0-0-1p0-0-0-0-0-6p5-2h3-|-1p0--0-0-0-0--1p0-0-0-0-0-12\11-0-0-|

Eb|----------------------------------|-------------------------------------|
Bb|----------------------------------|-------------------------------------|
Gb|----------------------------------|-------------------------------------|
Db|----------------------------------|-------------------------------------|
Ab|----------------------------------|-------------------------------------|
Db|-1p0--0-0-0-0-1p0-0-0-0-0-6p5-2h3-|-1p0--0-0-0-0--1p0-0-0-0-0-12\11-0-0-|

Eb|----------------------------------|-------------------------------------|
Bb|----------------------------------|-------------------------------------|
Gb|----------------------------------|-------------------------------------|
Db|----------------------------------|-------------------------------------|
Ab|----------------------------------|-------------------------------------|
Db|-1p0--0-0-0-0-1p0-0-0-0-0-6p5-2h3-|-1p0--0-0-0-0--1p0-0-0-0-0-12\11-0-0-|

Eb|----------------------------------|-------------------------------------|
Bb|----------------------------------|-------------------------------------|
Gb|----------------------------------|-------------------------------------|
Db|----------------------------------|-0--------0--------0-----------------|
Ab|----------------------------------|-0--------0--------0-----------------|
Db|-1p0--0-0-0-0-1p0-0-0-0-0-6p5-2h3-|-0--------0--------0--------12\------|


Chorus:

Eb|-------------|----------------|-------------|-----------------|
Bb|-------------|----------------|-------------|-----------------|
Gb|-------------|---------5------|-------------|---------5-------|
Db|-7-------10--|-(10)----5------|-7-------10--|-(10)----5-------|
Ab|-5-------8---|-(10)----3------|-7-------10--|-(10)----3-------|
Db|-5-------8---|-(8)-----3------|-5-------8---|-(8)-----3-------|

Eb|-------------|----------------|-------------|-----------------|
Bb|-------------|----------------|-------------|-----------------|
Gb|-------------|----------5-----|-------------|-----------------|
Db|-7-------10--|-(10)-----5-----|-7-------10--|-(10)----5--5--4-|
Ab|-5-------8---|-(10)-----3-----|-7-------10--|-(10)----3--3--2-|
Db|-5-------8---|-(8)------3-----|-5-------8---|-(8)-----3--3--2-|


Verse 2:

Eb|----------------------------------|-------------------------------------|
Bb|----------------------------------|-------------------------------------|
Gb|----------------------------------|-------------------------------------|
Db|----------------------------------|-------------------------------------|
Ab|----------------------------------|-------------------------------------|
Db|-1p0--0-0-0-0-1p0-0-0-0-0-6p5-2h3-|-1p0--0-0-0-0--1p0-0-0-0-0-12\11-0-0-|

Eb|----------------------------------|-------------------------------------|
Bb|----------------------------------|-------------------------------------|
Gb|----------------------------------|-------------------------------------|
Db|----------------------------------|-------------------------------------|
Ab|----------------------------------|-------------------------------------|
Db|-1p0--0-0-0-0-1p0-0-0-0-0-6p5-2h3-|-1p0--0-0-0-0--1p0-0-0-0-0-12\11-0-0-|

Eb|----------------------------------|-------------------------------------|
Bb|----------------------------------|-------------------------------------|
Gb|----------------------------------|-------------------------------------|
Db|----------------------------------|-------------------------------------|
Ab|----------------------------------|-------------------------------------|
Db|-1p0--0-0-0-0-1p0-0-0-0-0-6p5-2h3-|-1p0--0-0-0-0--1p0-0-0-0-0-12\11-0-0-|

Eb|----------------------------------|-------------------------------------|
Bb|----------------------------------|-------------------------------------|
Gb|----------------------------------|-------------------------------------|
Db|----------------------------------|-------------------------------------|
Ab|----------------------------------|-------------------------------------|
Db|-1p0--0-0-0-0-1p0-0-0-0-0-6p5-2h3-|-1p0--0-0-0-0--1p0-0-0-0-0-12\11-0-0-|

Eb|----------------------------------|-------------------------------------|
Bb|----------------------------------|-------------------------------------|
Gb|----------------------------------|-------------------------------------|
Db|----------------------------------|-------------------------------------|
Ab|----------------------------------|-------------------------------------|
Db|-1p0--0-0-0-0-1p0-0-0-0-0-6p5-2h3-|-1p0--0-0-0-0--1p0-0-0-0-0-12\11-0-0-|

Eb|----------------------------------|-------------------------------------|
Bb|----------------------------------|-------------------------------------|
Gb|----------------------------------|-------------------------------------|
Db|----------------------------------|-0--------0--------0-----------------|
Ab|----------------------------------|-0--------0--------0-----------------|
Db|-1p0--0-0-0-0-1p0-0-0-0-0-6p5-2h3-|-0--------0--------0--------12\------|


Chorus:

Eb|-------------|----------------|-------------|-----------------|
Bb|-------------|----------------|-------------|-----------------|
Gb|-------------|---------5------|-------------|---------5-------|
Db|-7-------10--|-(10)----5------|-7-------10--|-(10)----5-------|
Ab|-5-------8---|-(10)----3------|-7-------10--|-(10)----3-------|
Db|-5-------8---|-(8)-----3------|-5-------8---|-(8)-----3-------|

Eb|-------------|----------------|-------------|-----------------|
Bb|-------------|----------------|-------------|-----------------|
Gb|-------------|---------5------|-------------|-----------------|
Db|-7-------10--|-(10)----5------|-7-------10--|-(10)----5--5--4-|
Ab|-5-------8---|-(10)----3------|-7-------10--|-(10)----3--3--2-|
Db|-5-------8---|-(8)-----3------|-5-------8---|-(8)-----3--3--2-|


Bridge:

Eb|-----------------------------------------|---------------------------------|
Bb|-----------------------------------------|---------------------------------|
Gb|-----------------------------------------|---------------------------------|
Db|-0-0-10-0-10h12-0-0-13\12-0-10-0-0-10h12-|-0-0-6-0-6-7-0-0-6-5-0-3-5-0-2-3-|
Ab|-----------------------------------------|---------------------------------|
Db|-----------------------------------------|---------------------------------|

Eb|-----------------------------------------|---------------------------------|
Bb|-----------------------------------------|---------------------------------|
Gb|-----------------------------------------|---------------------------------|
Db|-0-0-10-0-10h12-0-0-13\12-0-10-0-0-10h12-|-0-0-6-0-6-7-0-0-6-5--0-0--------|
Ab|-----------------------------------------|---------------------------------|
Db|-----------------------------------------|---------------------------------|

Eb|-----------------------------------------|---------------------------------|
Bb|-----------------------------------------|---------------------------------|
Gb|-----------------------------------------|---------------------------------|
Db|-----------------------------------------|---------------------------------|
Ab|-----------------------------------------|---------------------------------|
Db|-0-0-10-0-10h12-0-0-13\12-0-10-0-0-10h12-|---------------------------------|

Eb|-----------------------------------------|---------------------------------|
Bb|-----------------------------------------|---------------------------------|
Gb|-----------------------------------------|---------------------------------|
Db|-0-0-10-0-10h12-0-0-13\12-0-10-0-0-10h12-|-0-0-6-0-6-7-0-0-7-6-5-3-5-0-3-5-|
Ab|-0-0-10-0-10h12-0-0-13\12-0-10-0-0-10h12-|-0-0-6-0-6-7-0-0-7-6-5-3-5-0-3-5-|
Db|-0-0-10-0-10h12-0-0-13\12-0-10-0-0-10h12-|-0-0-6-0-6-7-0-0-7-6-5-3-5-0-3-5-|

Eb|-----------------------------------------|-----------------------------------------|
Bb|-----------------------------------------|-----------------------------------------|
Gb|-----------------------------------------|-----------------------------------------|
Db|-----------------------------------------|-----------------------------------------|
Ab|-----------------------------------------|-----------------------------------------|
Db|-0--3-0--5-3--0--6-5-0--7-0--10-0--10-12-|-0--3-0--5-3--0--6-5-0--7-0--10-0--10-12-|

Eb|-----------------------------------------|-----------------------------------------|
Bb|-----------------------------------------|-----------------------------------------|
Gb|-----------------------------------------|-----------------------------------------|
Db|-----------------------------------------|-----------------------------------------|
Ab|-----------------------------------------|-----------------------------------------|
Db|-0--3-0--5-3--0--6-5-0--7-0--10-0--10-12-|--6-5-3-0---6-5-3-1----1--3--0--1--------|

Eb|-----------------------------------------|-----------------------------------------|
Bb|-----------------------------------------|-----------------------------------------|
Gb|-----------------------------------------|-----------------------------------------|
Db|-----------------------------------------|-----------------------------------------|
Ab|-----------------------------------------|-----------------------------------------|
Db|-0--3-0--5-3--0--6-5-0--7-0--10-0--10-12-|-0--3-0--5-3--0--6-5-0--7-0--10-0--10-12-|

Eb|-----------------------------------------|-----------------------------------------|
Bb|-----------------------------------------|-----------------------------------------|
Gb|-----------------------------------------|-----------------------------------------|
Db|-----------------------------------------|-----------------------------------------|
Ab|-----------------------------------------|-----------------------------------------|
Db|-0--3-0--5-3--0--6-5-0--7-0--10-0--10-12-|--6-5-3-0---6-5-3-1----1--3--0--1--------|

Eb|-----------------------|
Bb|-----------------------|
Gb|-----------------------|
Db|-0-0---0-0---0-0-------|
Ab|-0-0---0-0---0-0-------|
Db|-0-0---0-0---0-0---12\-|

Eb|-----------------------------------|----------------------------------|
Bb|-----------------------------------|----------------------------------|
Gb|-----------------------------------|----------------------------------|
Db|-----------------------------------|----------------------------------|
Ab|-----------------------------------|----------------------------------|
Db|-1p0--0-0-0-0--1p0-0-0-0-0-0-0-0-0-|-1p0--0-0-0-0-1p0-0-0-0-0-6p5-2h3-|

Eb|-----------------------------------|----------------------------------|
Bb|-----------------------------------|----------------------------------|
Gb|-----------------------------------|----------------------------------|
Db|-----------------------------------|----------------------------------|
Ab|-----------------------------------|----------------------------------|
Db|-1p0--0-0-0-0--1p0-0-0-0-0-0-0-0-0-|-1p0--0-0-0-0-1p0-0-0-0-0-6p5-2h3-|

Eb|----------------------------------|-------------------------------------|
Bb|----------------------------------|-------------------------------------|
Gb|----------------------------------|-------------------------------------|
Db|----------------------------------|-------------------------------------|
Ab|----------------------------------|-------------------------------------|
Db|-1p0--0-0-0-0-1p0-0-0-0-0-6p5-2h3-|-1p0--0-0-0-0--1p0-0-0-0-0-12\11-0-0-|

Eb|----------------------------------|-------------------------------------|
Bb|----------------------------------|-------------------------------------|
Gb|----------------------------------|-------------------------------------|
Db|----------------------------------|-0--------0--------0-----------------|
Ab|----------------------------------|-0--------0--------0-----------------|
Db|-1p0--0-0-0-0-1p0-0-0-0-0-6p5-2h3-|-0--------0--------0--------12\------|


Chorus:

Eb|-------------|----------------|-------------|-----------------|
Bb|-------------|----------------|-------------|-----------------|
Gb|-------------|---------5------|-------------|---------5-------|
Db|-7-------10--|-(10)----5------|-7-------10--|-(10)----5-------|
Ab|-5-------8---|-(10)----3------|-7-------10--|-(10)----3-------|
Db|-5-------8---|-(8)-----3------|-5-------8---|-(8)-----3-------|

Eb|-------------|----------------|-------------|-----------------|
Bb|-------------|----------------|-------------|-----------------|
Gb|-------------|---------5------|-------------|---------5-------|
Db|-7-------10--|-(10)----5------|-7-------10--|-(10)----5-------|
Ab|-5-------8---|-(10)----3------|-7-------10--|-(10)----3-------|
Db|-5-------8---|-(8)-----3------|-5-------8---|-(8)-----3-------|

Eb|-------------|----------------|-------------|-----------------|
Bb|-------------|----------------|-------------|-----------------|
Gb|-------------|---------5------|-------------|---------5-------|
Db|-7-------10--|-(10)----5------|-7-------10--|-(10)----5-------|
Ab|-5-------8---|-(10)----3------|-7-------10--|-(10)----3-------|
Db|-5-------8---|-(8)-----3------|-5-------8---|-(8)-----3-------|

Eb|-------------|----------------|-------------|-----------------|
Bb|-------------|----------------|-------------|-----------------|
Gb|-------------|---------5------|-------------|-----------------|
Db|-7-------10--|-(10)----5------|-7-------10--|-(10)----5--5--4-|
Ab|-5-------8---|-(10)----3------|-7-------10--|-(10)----3--3--2-|
Db|-5-------8---|-(8)-----3------|-5-------8---|-(8)-----3--3--2-|


Outro:

Eb|----------------------------------|-------------------------------------|
Bb|----------------------------------|-------------------------------------|
Gb|----------------------------------|-------------------------------------|
Db|----------------------------------|-------------------------------------|
Ab|----------------------------------|-------------------------------------|
Db|-1p0--0-0-0-0-1p0-0-0-0-0-6p5-2h3-|-1p0--0-0-0-0--1p0-0-0-0-0-12\11-0-0-|

Eb|----------------------------------|-------------------------------------|
Bb|----------------------------------|-------------------------------------|
Gb|----------------------------------|-------------------------------------|
Db|----------------------------------|-------------------------------------|
Ab|----------------------------------|-------------------------------------|
Db|-1p0--0-0-0-0-1p0-0-0-0-0-6p5-2h3-|-1p0---------------------------------|

↓ Add and view comments below ↓

What do you think about this song and these tabs?

Add your comments, questions, rant or a thumbs up below.

Almost there ...

Sign in to get your own page with links to favourite songs and more. You are just one click away...

Login with Facebook Login with Google