Log in

One click and you are in

Login with Facebook Login with Google

Why sign up and log in

Guitar Tabs Explorer
Pop Evil tabs for Hey mister

Guitar tabs

standar tunning
h:hammer
p:pull off
b:bend
or/:slide down or up

First there is the introduction/vers

E--------------------------------------------------------------------------|I
B--------1---------3-------0-------0-------1---------3-------0-------0-----|I
G----------0---------2-------0---------------0---------2-------0-----------|I
D------2-----------------2-----2/4-------2---------4-------0-------2-------|I
A--023-------0h2-2-------------------023-------3/5-------------------------|I
E----------------------0---------------------------------3-------0---------|I

Then, the second part, i'm not sure if the piking was good so i made the strum too... i think.

E--------------------------------------------------------------------------|I
B--------------------------------------------------------------------------|I
G----2--5-----7--2--5-----7------------------------------------------------|I
D----2--5--5--7--2--5--5--7------------------------------------------------|I
A----0--2--5--5--0--2--5--5------------------------------------------------|I
E----------3-----------3---------------------------------------------------|I
or
E------0---------3---------3-----------0-----------------------------------|I
B--------------------------------------------------------------------------|I
G----2---2-----5---5---------------7-----7---------------------------------|I
D--2-------2-5-------5---5---5-------7-----7-------------------------------|I
A-0---------3----------5-------5-5-----------------------------------------|I
E---------------------3----------------------------------------------------|I

for the chorus, you play the guitar that way, listen at the song for the right struming.

E--------------------------------------------------------------------------|I
B--------------------------------------------------------------------------|I
G--5--5p4------4---7--9--5--5p4-----4---7-6--------------------------------|I
D--5-5---5--5-5-75-7--9--5-5---5-5-5-75-7-6--------------------------------|I
A--3--------5------5--7--3-------5------5-4--------------------------------|I
E-----------3--------------------3-----------------------------------------|I

And finaly, while he sing the chorus for the last time, the solo.

E--------------------------------------------------------------------------|I
B----15---15--15---12-15h17p15-12h15h17p15-12h15h17p15p12------------------|I
G----14b--14b-14b----------------------------------------14b12--12-14b14---|I
D-------------------------------------------------------------14-----------|I
A--------------------------------------------------------------------------|I
E--------------------------------------------------------------------------|I

E--------------------------------------------------------------------------|I
B-------------15-----------------------------------------------------------|I
G----12-14-14b/-b-12-14-12------------------------------------------------|I
D--14-----------------------141414-14-12-14-12--12-------------------------|I
A---------------------------------------------14--12-10-7-10-12-10-9-------|I
E--------------------------------------------------------------------------|I

E--------------------------------------------------------------------------|I
B------------------------------------------------15------------------------|I
G------------------------------------------12-14b--14b12---12--------------|I
D---7b7b7b-7b7b7b-7b7b7b--------------12-14-------------14---14------------|I
A--------------------------7--10-12-14-------------------------------------|I
E--------------------------------------------------------------------------|I

E----------------15b---12-14-10-12-12b----12-10--10-10---10--10-12-10------|I
B---------15----------------------------12-----12------12--12--------------|I
G----14/16-16p14-----------------------------------------------------------|I
D--------------------------------------------------------------------------|I
A--------------------------------------------------------------------------|I
E--------------------------------------------------------------------------|I

E--17b-15-17-15------------------------------------------------------------|I
B--------------17-15-------------------------------------------------------|I
G-------------------14b-12h14----------------------------------------------|I
D--------------------------------------------------------------------------|I
A--------------------------------------------------------------------------|I
E--------------------------------------------------------------------------|I

Almost there ...

Sign in to get your own page with links to favourite songs and more. You are just one click away...

Login with Facebook Login with Google