Log in

One click and you are in

Login with Facebook Login with Google

Why sign up and log in

Guitar Tabs Explorer
Pomme guitar tabs for Je sais pas danser

Guitar tabs

Tuning: Standard (E A D G B E)


Intro:

e|-----------------------|----------------------------------------|----------------------------------------|
B|-----------------------|----------------------------------------|----------------------------------------|
G|-----------------------|----------------------------------------|----------------------------------------|
D|-----------------------|-------2---------2---------2---------2--|-------2---------2---------2---------2--|
A|------------------3----|------------2-------------------2-------|------------2-------------------2-------|
E|---3----2----0---------|--0-------------------0-----------------|--0-------------------0-----------------|
Verse 1:

e|----------------------------------------|----------------------------------------|
B|----------------------------------------|----------------------------------------|
G|----------------------------------------|----------------------------------------|
D|-------2---------2---------2---------2--|-------2---------2---------2---------2--|
A|------------2-------------------2-------|------------0-------------------0-------|
E|--0-------------------0-----------------|--2-------------------2-----------------|

e|----------------------------------------|----------------------------------------|
B|----------------------------------------|----------------------------------------|
G|-------2---------2---------2---------2--|-------0---------0---------0---------2--|
D|------------2-------------------2-------|------------2-------------------2-------|
A|--0-------------------0-----------------|--3-------------------3-----------------|
E|----------------------------------------|----------------------------------------|

e|---------------------------------------------------------------------------|
B|---------------------------------------------------------------------------|
G|-------------2-----------------2-----------------2-----------------2-------|
D|----------------------2-----------------------------------2----------------|
A|----0-----------------------------------0----------------------------------|
E|---------------------------------------------------------------------------|

e|---------------------------------------------------------------------------|
B|---------------------------------------------------------------------------|
G|-------------2-----------------2-----------------2-----------------2-------|
D|----------------------2-----------------------------------2----------------|
A|----0-----------------------------------0----------------------------------|
E|---------------------------------------------------------------------------|

Verse 2:

e|----------------------------------------|----------------------------------------|
B|----------------------------------------|----------------------------------------|
G|----------------------------------------|----------------------------------------|
D|-------2---------2---------2---------2--|-------2---------2---------2---------2--|
A|------------2-------------------2-------|------------0-------------------0-------|
E|--0-------------------0-----------------|--2-------------------2-----------------|

e|----------------------------------------|----------------------------------------|
B|----------------------------------------|----------------------------------------|
G|-------2---------2---------2---------2--|-------0---------0---------0---------0--|
D|------------2-------------------2-------|------------2-------------------0-------|
A|--0-------------------0-----------------|--3-------------------2-----------------|
E|----------------------------------------|----------------------------------------|

e|--------------------------------------------------------------------|
B|--------------------------------------------------------------------|
G|-----------2-----------------2-----------------2-----------------2--|
D|--------------------2-----------------------------------0-----------|
A|--0-----------------------------------------------------------------|
E|--------------------------------------2-----------------------------|

e|--------------------------------------------------------------------|
B|--------------------------------------------------------------------|
G|-----------0-----------------0-----------------0-----------------0--|
D|--------------------0-----------------------------------0-----------|
A|--------------------------------------------------------------------|
E|--3-----------------------------------3-----------------------------|


Chorus:

e|-----------------------|----------------------------------------|----------------------------------------|
B|-----------------------|----------------------------------------|----------------------------------------|
G|-----------------------|----------------------------------------|----------------------------------------|
D|-----------------------|-------2---------2---------2---------2--|-------2---------2---------2---------2--|
A|------------------3----|------------2-------------------2-------|------------2-------------------2-------|
E|---3----2----0---------|--0-------------------0-----------------|--0-------------------0-----------------|

e|----------------------------------------|----------------------------------------|
B|----------------------------------------|----------------------------------------|
G|-------0---------0---------0---------0--|-------0---------0---------0---------0--|
D|------------2-------------------2-------|------------2-------------------2-------|
A|--4-------------------4-----------------|--3-------------------3-----------------|
E|----------------------------------------|----------------------------------------|

e|----------------------------------------|----------------------------------------|
B|----------------------------------------|-------3---------3---------3---------3--|
G|-------0---------0---------0---------0--|------------2-------------------2-------|
D|------------2-------------------2-------|--0-------------------0-----------------|
A|--3-------------------3-----------------|----------------------------------------|
E|----------------------------------------|----------------------------------------|

Other versions of Je Sais Pas Danser

Je sais pas danserChords

↓ Add and view comments below ↓

What do you think about this song and these tabs?

Add your comments, questions, rant or a thumbs up below.

Almost there ...

Sign in to get your own page with links to favourite songs and more. You are just one click away...

Login with Facebook Login with Google