Log in

One click and you are in

Login with Facebook Login with Google

Why sign up and log in

Guitar Tabs Explorer
Polyphia bass tabs for Playing god

Bass tabs

Key: G


Intro:

G|--------------------------------------------|
D|---------------1----------------------------|
A|---------------------5----------------------|
E|---------5----------4---------3 ------------|


G|---------------5---------------6----------|
D|------------------------------------------|
A|------------------------------------------|
E|------------------------------------------|




Verse 1:

G|----------------------------6----------|
D|-----------------------5---------------|
A|---------------------4-----------------|
E|----------------------------6----------|



Chorus:

G|--------------------------555555--------------|
D|--------------------2222----------------------|
A|----------------------------------------------|
E|---------------------------11-----------------|

ⓘ Bass guitar tab for 'Playing God' by Polyphia, a progressive rock artist. . Polyphia is known for angry music.

Almost there ...

Sign in to get your own page with links to favourite songs and more. You are just one click away...

Login with Facebook Login with Google