Log in

One click and you are in

Login with Facebook Login with Google

Why sign up and log in

Guitar Tabs Explorer
Polyphia Tabs bass tabs for So strange

Bass tabs

Tuning: Drop D (D A D G)


Tuning DADG
Chorus:
G|----------------|---------------|----------------------|--------------------|
D|----------------|---------------|----------------------|--------------------|
A|--5-5---0-2-5-5-|-5-5---0-2-5-5-|--5-4-3-3------3------|--3-3------3--------|
D|----------------|---------------|----------5--0---2-3-5|-------5-0----2-3-5-|


G|----------------|---------------|----------------------|--------------------|
D|----------------|---------------|----------------------|--------------------|
A|--5-5---0-2-5-5-|-5-5---0-2-5-5-|--5-4-3-3------3------|--3-3------3--------|
D|----------------|---------------|----------5--0---2-3-5|-------5-0----2-3-5-|


Interlude Slap part: (CLAY GOOBER DOES THE SLAP WITH A PICK AND POP WITH MIDDLE OR RING FINGER)


  S S P S S S S P S S P  S S P S  S S P  S S S P S  S S S S P   S S P S  S
G|------7---------7-------|-----7----------7-|---------5----------------|---------------------|
D|------------------X---7-|------------------|-----------------------5--|-------5-------------|
A|--5-5---0-X-5-5-----X---|-5-5---0H3-5-5----|--4--3-3-------3-3-X-X----|--3-3--------3-------|
D|------------------------|------------------|-----------5H7------------|---------5H7---2-3-5-|

  S S P S S S S P S S P  S S P S  S S P  S S S P S  S S S S P   S S P S  S
G|------7---------7-------|-----7----------7-|---------5----------------|---------------------|
D|------------------X---7-|------------------|-----------------------5--|-------5-------------|
A|--5-5---0-X-5-5-----X---|-5-5---0H3-5-5----|--4--3-3-------3-3-X-X----|--3-3--------3-------|
D|------------------------|------------------|-----------5H7------------|---------5H7---2-3-5-|

  S S P S S S S P S S P  S S P S  S S P  S S S P S  S S S S P   S S P S  S
G|------7---------7-------|-----7----------7-|---------5----------------|---------------------|
D|------------------X---7-|------------------|-----------------------5--|-------5-------------|
A|--5-5---0-X-5-5-----X---|-5-5---0H3-5-5----|--4--3-3-------3-3-X-X----|--3-3--------3-------|
D|------------------------|------------------|-----------5H7------------|---------5H7---2-3-5-|

  S S P S S S S P S S P  S S P S  S S P  S S S P S  S S S S P   S S P S  S
G|------7---------7-------|-----7----------7-|---------5----------------|---------------------|
D|------------------X---7-|------------------|-----------------------5--|-------5-------------|
A|--5-5---0-X-5-5-----X---|-5-5---0H3-5-5----|--4--3-3-------3-3-X-X----|--3-3--------3-------|
D|------------------------|------------------|-----------5H7------------|---------5H7---2-3-5-|



Chorus:
G|----------------|---------------|----------------------|--------------------|
D|----------------|---------------|----------------------|--------------------|
A|--5-5---0-2-5-5-|-5-5---0-2-5-5-|--5-4-3-3------3------|--3-3------3--------|
D|----------------|---------------|----------5--0---2-3-5|-------5-0----2-3-5-|


G|----------------|---------------|----------------------|--------------------|
D|----------------|---------------|----------------------|--------------------|
A|--5-5---0-2-5-5-|-5-5---0-2-5-5-|--5-4-3-3------3------|--3-3------3--------|
D|----------------|---------------|----------5--0---2-3-5|-------5-0----2-3-5-|


No more bass


************************************

| P Pop

************************************

Almost there ...

Sign in to get your own page with links to favourite songs and more. You are just one click away...

Login with Facebook Login with Google