Log in

One click and you are in

Login with Facebook Login with Google

Why sign up and log in

Guitar Tabs Explorer
Polo G chords for Rapstar ukulele

Guitar chords

This does need to be differently tuned:
C gets tuned to B
E gets tuned to D
A gets tuned to F#
The 898 is in the shape of a G and keep that shape, then strum, then arpegiate the G chord.


Intro:

A|---------0-----0--0----0h1-------------8--2--2-----------2--------|
E|------0-----0-------0-------2p0-----9-----3-----3-----3-----------|
C|---0-----------------------------8--------2--------2--------------|
G|------------------------------------------------------------------|

A|---------0-----0--0----0h1-------------8--2--2-----------2--------|
E|------0-----0-------0-------2p0-----9-----3-----3-----3-----------|
C|---0-----------------------------8--------2--------2--------------|
G|------------------------------------------------------------------|


************************************

| h Hammer-on
| p Pull-off

************************************

Almost there ...

Sign in to get your own page with links to favourite songs and more. You are just one click away...

Login with Facebook Login with Google