Log in

One click and you are in

Login with Facebook Login with Google

Why sign up and log in

Guitar Tabs Explorer
The Police tabs for Omegaman

Guitar tabs with lyrics

Here is a nice little version of one of my favourite Police songs.

In this TAB version, the solo might not be right as I can't see it in my head
at the moment.

In the solo, the ^ indicates a slide from 13th to 15th and back.

So sit back, relax, turn the music up loud and enjoy.

OMEGAMAN  by  THE POLICE   from the album   GHOST IN THE MACHINE

**intro**

E----12----11----12|----10------------|----12----11----12|----10----| R
B----13----12----13|----12------------|----13----12----13|----12----| A chord diagramE MajorE
G-10----10----10---|-10---------------|-10----10----10---|-10-------| P
D------------------|------------------|------------------|----------| A chord diagramE MajorE
A------------------|------------------|------------------|----------| A chord diagramA augmentedA
E------------------|------------------|------------------|----------| T

**1st verse**
Night  came  down  jungle  sounds  ...
E------------------|------------------|------------------|------------------
B--6---------------|------------------|--5---------------|------------------
G--7---------------|------------------|--5---------------|------------------
D--7---------------|------------------|--5---------------|------------------
A------------------|------------------|------------------|------------------
E------------------|------------------|------------------|------------------

City  screams  are  all  I've  heard  in ...
E------------------|------------------|------------------|------------------
B--6---------------|------------------|--5---------------|------------------
G--7---------------|------------------|--5---------------|------------------
D--7---------------|------------------|--5---------------|------------------
A------------------|------------------|------------------|------------------
E------------------|------------------|------------------|------------------

The  razor's  edge  of  night  it  ...
E------------------|------------------|------------------|------------------
B--6---------------|------------------|--5---------------|------------------
G--7---------------|------------------|--5---------------|------------------
D--7---------------|------------------|--5---------------|------------------
A------------------|------------------|------------------|------------------
E------------------|------------------|------------------|------------------

I  sit  apon  the  edge  now  ...
E------------------|------------------|------------------|------------------
B--6---------------|------------------|--5---------------|------------------
G--7---------------|------------------|--5---------------|------------------
D--7---------------|------------------|--5---------------|------------------
A------------------|------------------|------------------|------------------
E------------------|------------------|------------------|------------------

**chorus**
I'm  the   o - ...
E----12----11----12|----10------------| R
B----13----12----13|----12------------| A chord diagramE MajorE
G-10----10----10---|-10---------------| P   X 5
D------------------|------------------| A chord diagramE MajorE
A------------------|------------------| A chord diagramA augmentedA
E------------------|------------------| T

Always  talking    to  myself                                 Oh.......
E--6---------------|--10--------------|--10--------------|------------------
B--6---------------|--11--------------|--11--------------|------------------
G--7---------------|--10--------------|--10--------------|------------------
D--5---------------|---8--------------|--10--------------|------------------
A------------------|------------------|------------------|------------------
E------------------|------------------|------------------|------------------

**solo (also used in the outro overtop of chorus section)**
E------------------|------------------| R
B-10---13-^-15-^-13|-^-15-^-13--10--10| A chord diagramE MajorE
G------------------|------------------| P
D------------------|------------------| A chord diagramE MajorE
A------------------|------------------| A chord diagramA augmentedA
E------------------|------------------| T


Hope this helps someone who enjoys The Police and Andy Summers as much as I Do.
If anyone has any of STINGS songs, I would love them expecially FORTRACE
AROUND YOUR HEAT.  Please e-mail me.


            IF NO ONE COMPLAINS ABOUT YOUR MUSIC, THEN YOU'RE NOT
            PLAYING IT LOUD ENOUGH.

    Phil
     (e-mail me on s1170796@giaec.cc.monash.edu.au)

Other versions of Omegaman

OmegamanChords

Almost there ...

Sign in to get your own page with links to favourite songs and more. You are just one click away...

Login with Facebook Login with Google