Log in

One click and you are in

Login with Facebook Login with Google

Why sign up and log in

Guitar Tabs Explorer
The Police bass tabs for Next to you

Bass tabs

Title: Next To You
Album: Outlandos d'Amour

Tuning: Standard (E A D G)
Intro                  Verse 1
G|--------|------------------------------|---------------------------------|---------------------------------|
D|--------|------------------------------|---------------------------------|---------------------------------|
A|--------|----------5---5---------------|---------------------------------|-------------5---5---------------|
E|--------|------------------5---5---0---|-0---0---0---0---0---0---0---0---|-0---0---0-----------5---5---0---|


G|---------------------------------|---------------------------------|---------------------------------|
D|---------------------------------|---------------------------------|---------------------------------|
A|---------------------------------|-------------5---5---------------|---------------------------------|
E|-0---0---0---0---0---0---0---0---|-0---0---0-----------5---5---0---|-0---0---0---0---0---0---0---0---|


G|---------------------------------|---------------------------------|---------------------------------|
D|---------------------------------|---------------------------------|---------------------------------|
A|-------------5---5---------------|---------------------------------|-------------5---5---------------|
E|-0---0---0-----------5---5---0---|-0---0---0---0---0---0---0---0---|-0---0---0-----------5---5---0---|


G|---------------------------------|---------------------------------|---------------------------------|
D|---------------------------------|---------------------------------|---------------------------------|
A|---------------------------------|-------------5---5---------------|---------------------------------|
E|-0---0---0---0---0---0---0---0---|-0---0---0-----------5---5---0---|-0---0---0---0---0---0---0---0---|


G|---------------------------------|---------------------------------|---------------------------------|
D|---------------------------------|---------------------------------|---------------------------------|
A|-------------5---5---------------|---------------------------------|-------------5---5---------------|
E|-0---0---0-----------5---5---0---|-0---0---0---0---0---0---0---0---|-0---0---0-----------5---5---0---|

                                   Chorus 1
G|---------------------------------|---------------------------------|---------------------------------|
D|---------------------------------|---------------------------------|---------------------------------|
A|---------------------------------|-----------------------------4---|---------4-------4---4---4---5---|
E|-0-------------------------------|---------------------------------|---------------------------------|

G|---------------------------------|---------------------------------|---------------------------------|
D|---------------------------------|---------------------------------|---------------------------------|
A|---------5-------5---5---7-------|---------5-------5---7-----------|-5-------5---7---7---7---7---4---|
E|-----------------------------0---|-------------0-----------0---0---|-----0---------------------------|


G|---------------------------------|---------------------------------|---------------------------------|
D|---------------------------------|---------------------------------|---------------------------------|
A|---------4-------4---4---4---5---|---------5-------5---5---7---7---|-----7---7---7---7---7---7---7---|
E|---------------------------------|---------------------------------|---------------------------------|


G|---------------------------------|---------------------------------|---------------------------------|
D|---------------------------------|---------------------------------|---------------------------------|
A|-7---7---7---5---5---------------|---------------------------------|-------------5---5---------------|
E|---------------------5---5---0---|-0---0---0---0---0---0---0---0---|-0---0---0-----------5---5---0---|


Verse 2
G|---------------------------------|---------------------------------|---------------------------------|
D|---------------------------------|---------------------------------|---------------------------------|
A|---------------------------------|-------------5---5---------------|---------------------------------|
E|-0---0---0---0---0---0---0---0---|-0---0---0-----------5---5---0---|-0---0---0---0---0---0---0---0---|


G|---------------------------------|---------------------------------|---------------------------------|
D|---------------------------------|---------------------------------|---------------------------------|
A|-------------5---5---------------|---------------------------------|-----------------------------4---|
E|-0---0---0-----------5---5---0---|-0-------------------------------|---------------------------------|


Chorus 2
G|---------------------------------|---------------------------------|---------------------------------|
D|---------------------------------|---------------------------------|---------------------------------|
A|---------4-------4---4---4---5---|---------5-------5---5---7-------|---------5-------5---7-----------|
E|---------------------------------|-----------------------------0---|-------------0-----------0---0---|


G|---------------------------------|---------------------------------|---------------------------------|
D|---------------------------------|---------------------------------|---------------------------------|
A|-5-------5---7---7---7---7---4---|---------4-------4---4---4---5---|---------5-------5---5---7---7---|
E|-----0---------------------------|---------------------------------|---------------------------------|


G|---------------------------------|---------------------------------|---------------------------------|
D|---------------------------------|---------------------------------|---------------------------------|
A|-7---7---7---7---7---7---7---7---|-7---7---7---7---7---7---7---5---|-5---5---5---5---5---5---5---5---|
E|---------------------------------|---------------------------------|---------------------------------|


G|---------------------------------|---------------------------------|---------------------------------|
D|---------------------------------|---------------------------------|---------------------------------|
A|-5---5---5---5---5---5---5---7---|-7---7---7---7---7---7---7---7---|-7---7---7---7---7---7---7---5---|
E|---------------------------------|---------------------------------|---------------------------------|

                                   (Solo)
G|---------------------------------|---------------------------------|---------------------------------|
D|---------------------------------|---------------------------------|-------------5-----------3-------|
A|-5---5---5---5---5---5---5---5---|-5---5---5---5---5---5---5---5---|---------------------------------|
E|---------------------------------|---------------------------------|-3-------3-----------3-----------|


G|---------------------------------|---------------------------------|---------------------------------|
D|-2-------------------------------|-------------5-----------3-------|-2-------------------------------|
A|---------------------------------|---------------------------------|---------------------------------|
E|---------------------------------|-3-------3-----------3-----------|---------------------------------|


G|---------------------------------|---------------------------------|---------------------------------|
D|-------------5-----------3-------|-2-------------------------------|-------------5-----------3-------|
A|---------------------------------|---------------------------------|---------------------------------|
E|-3-------3-----------3-----------|---------------------------------|-3-------3-----------3-----------|


G|---------------------------------|---------------------------------|---------------------------------|
D|-2-------------------------------|-------------7-----------5-------|-4-------------------------------|
A|---------------------------------|-0-------0-----------0-----------|---------------------------------|
E|---------------------------------|---------------------------------|---------------------------------|


G|---------------------------------|---------------------------------|---------------------------------|
D|-------------7-----------5-------|-4-------------------------------|-------------7-----------5-------|
A|-0-------0-----------0-----------|---------------------------------|-0-------0-----------0-----------|
E|---------------------------------|---------------------------------|---------------------------------|


G|---------------------------------|---------------------------------|---------------------------------|
D|-4-------------------------------|-------------7-----------5-------|-4-------------------------------|
A|---------------------------------|-0-------0-----------0-----------|-------------5---5---------------|
E|---------------------------------|---------------------------------|---------------------5---5---0---|


Verse 3
G|---------------------------------|---------------------------------|---------------------------------|
D|---------------------------------|---------------------------------|---------------------------------|
A|---------------------------------|-----------------------------5---|-----7---7---7---5---7---7---7---|
E|-0---0---0---0---0---0---0---0---|-0---0---0---0---0---0---0-------|---------------------------------|


G|---------------------------------|---------------------------------|---------------------------------|
D|---------------------------------|---------------------------------|---------------------------------|
A|-5---7---7---5---5---------------|---------------------------------|-----------------------------5---|
E|---------------------5---5---0---|-0---0---0---0---0---0---0---0---|-0---0---0---0---0---0---0-------|


G|---------------------------------|---------------------------------|---------------------------------|
D|---------------------------------|---------------------------------|---------------------------------|
A|-----7---7---7---5---7---7---7---|-5---7---7---5---5---------------|---------------------------------|
E|---------------------------------|---------------------5---5---0---|-0---0---0---0---0---0---0---0---|


G|---------------------------------|---------------------------------|---------------------------------|
D|---------------------------------|---------------------------------|---------------------------------|
A|-----------------------------5---|-----7---7---7---5---7---7---7---|-5---7---7---5---5---------------|
E|-0---0---0---0---0---0---0-------|---------------------------------|---------------------5---5---0---|

                                   Chorus 3/Outro
G|---------------------------------|---------------------------------|---------------------------------|
D|---------------------------------|---------------------------------|---------------------------------|
A|---------------------------------|-----------------------------4---|---------4-------4---4---4---5---|
E|-0---0---0---0---0---0---0---0---|-0---0---0---0---0---0---0-------|---------------------------------|


G|---------------------------------|---------------------------------|---------------------------------|
D|---------------------------------|---------------------------------|---------------------------------|
A|---------5-------5---5---7---7---|-----7---7---7---7---7---7---7---|-7---7---7---7---7---7---7---4---|
E|---------------------------------|---------------------------------|---------------------------------|


G|---------------------------------|---------------------------------|---------------------------------|
D|---------------------------------|---------------------------------|---------------------------------|
A|---------4-------4---4---4---5---|---------5-------5---5---7-------|-----7---7---7---7---7---7---7---|
E|---------------------------------|-----------------------------0---|---------------------------------|


G|---------------------------------|---------------------------------|---------------------------------|
D|---------------------------------|---------------------------------|---------------------------------|
A|-7---7---7---7---7---5---5---4---|---------4-------4---4---4---5---|---------5-------5---5---7-------|
E|---------------------------------|---------------------------------|-----------------------------0---|


G|---------------------------------|---------------------------------|---------------------------------|
D|---------------------------------|---------------------------------|---------------------------------|
A|-----7---7---7---7---7---7---7---|-7---7---7---7---7---7---5---4---|---------4-------4---4---4---5---|
E|---------------------------------|---------------------------------|---------------------------------|


G|---------------------------------|---------------------------------|---------------------------------|
D|---------------------------------|---------------------------------|---------------------------------|
A|---------5-------5---5---5---5---|-7---7---7---7---7---7---7---7---|-7---7---7---7---7---7---7---7---|
E|---------------------------------|---------------------------------|---------------------------------|


G|---------------------------------|---------------------------------|---------------------------------|
D|---------------------------------|---------------------------------|---------------------------------|
A|-5---5---5---5---5---5---5---5---|-5---5---5---5---5---5---5---7---|-7---7---7---7---7---7---7---7---|
E|---------------------------------|---------------------------------|---------------------------------|


G|---------------------------------|---------------------------------|---------------------------------|
D|---------------------------------|---------------------------------|---------------------------------|
A|-7---7---7---7---7---7---7---5---|-5---5---5---5---5---5---5---5---|-5---5---5---5---5---5---5---7---|
E|---------------------------------|---------------------------------|---------------------------------|


G|---------------------------------|---------------------------------|---------------------------------|
D|---------------------------------|---------------------------------|---------------------------------|
A|-7---7---7---7---7---7---7---7---|-7---7---7---7---7---7---7---5---|-5---5---5---5---5---5---5---5---|
E|---------------------------------|---------------------------------|---------------------------------|


G|---------------------------------|---------------------------------|---------------------------------|
D|---------------------------------|---------------------------------|---------------------------------|
A|-5---5---5---5---5---5---5---7---|-7---7---7---7---7---7---7---7---|-7---7---7---7---7---7---7---5---|
E|---------------------------------|---------------------------------|---------------------------------|


G|---------------------------------|---------------------------------|---------------------------------|
D|---------------------------------|---------------------------------|---------------------------------|
A|-5---5---5---5---5---5---5---5---|-5---5---5---5---5---5---5---7---|-7---7---7---7---7---7---7---7---|
E|---------------------------------|---------------------------------|---------------------------------|


G|---------------------------------|---------------------------------|---------------------------------|
D|---------------------------------|---------------------------------|---------------------------------|
A|-7---7---7---7---7---7---7---5---|-5---5---5---5---5---5---5---5---|-5---5---5---5---5---5---5---7---|
E|---------------------------------|---------------------------------|---------------------------------|


G|---------------------------------|---------------------------------|---------------------------------|
D|---------------------------------|---------------------------------|---------------------------------|
A|-7---7---7---7---7---7---7---7---|-7-----------5---5---------------|---------------------------------|
E|---------------------------------|-----0---0-----------5---5---0---|-0-------------------------------|

Almost there ...

Sign in to get your own page with links to favourite songs and more. You are just one click away...

Login with Facebook Login with Google