Log in

One click and you are in

Login with Facebook Login with Google

Why sign up and log in

Guitar Tabs Explorer
The Police tabs for Message in a bottle (Ver. 2)

Guitar tabs

Verses:
|----------------------------|
|----------------------------|
|-----8----------------------|
|---6-------9-----11-----6s7-|
|-4-------7-----9------4-----|
|-------5-----7------2-------|

(I'll send an SOS.........)
  A chord diagramE MajorE              A chord diagramD MajorD A chord diagramE MajorE
|--------------------|
|----------------7-9-|
|----------------7-9-|
|-7-7-7-7-7-7-7--7-9-|
|-7-7-7-7-7-7-7--5-7-|
|-5-5-5-5-5-5-5------|


(I hope that someone gets my..............)
 A chord diagramF#F#               A chord diagramD MajorD
|---------------------------------|
|-----------------7-7-7-7-7-7-7-7-|
|-----------------7-7-7-7-7-7-7-7-|
|-4-4-4-4-4-4-4-4-7-7-7-7-7-7-7-7-|
|-4-4-4-4-4-4-4-4-5-5-5-5-5-5-5-5-|
|-2-2-2-2-2-2-2-2-----------------|


Chorus: A chord diagramC# minorC#m A chord diagramA augmentedA A chord diagramC# minorC#m A chord diagramA augmentedA A chord diagramC# minorC#m A chord diagramA augmentedA A chord diagramF#F#


Note: Be sure to play an A chord diagramA augmentedA bar chord on the chorus.


This was tabbed by Joel at ojdbjb@gmail.com Please email me if you have
any questions on the tab or if you need assistance. I would be more than happy to help.

Other versions of Message In A Bottle

Message in A BottleChords
Message in A Bottle (Ver. 2)Chords
Message in A Bottle (Ver. 3)Chords
Message in A Bottle AcousticChords
Message in A BottleTabs
Message in A Bottle - IntroTabs

Almost there ...

Sign in to get your own page with links to favourite songs and more. You are just one click away...

Login with Facebook Login with Google